Cifra da música: Spies - Coldplay

Esse cifra de Coldplay já foi acessado por 936 pessoas.

Comente

A música Spies fez muito sucesso quando foi gravada por Coldplay. Quer conhecer a letra dela? Veja a letra de Spies e cante.

Veja também o vídeo da música tocada.


Alguns acordes difíceis novamente, mas eles soam muito precisos com esta afinação.
 Toda vez que você encontrar uma nota tocada na corda Mi menor, use o polegar para tocá-la.

 
 Guitarras 1 e 2 - E A C# G B C#

 INTRO:

 Guitarra 2

 |------------------------|
 |--14~~~~~b16~~~r14~~~~--|
 |------------------------|
 |------------------------| x4
 |------------------------|
 |------------------------|

 Guitarra 1

 |--0--|
 |--5--|
 |--6--|
 |--0--|
 |--4--|
 |-----|

 VERSO:

 Guitarra 1

 |--0------0------0------0--|
 |--2------2------5------4--|
 |--2------1------6------4--|
 |--0------0------0------0--| x4
 |--4------2------7------6--|
 |--2------0------5------4--|

 Refrão:

 Guitarra 1

 |--0------0-------0-----0---0--|
 |--0------0-------0-----2---2--|
 |--6------9-------6-----1---3--|
 |--0------0-------0-----0---0--| x4
 |--4------7-------4-----2---x--|
 |---------------------------2--|
 
 Guitarra 2

 |---------14---12------10------------14---15------17--------
 |-------0----0----0-------0--------0----0----0-------0------
 |-----------------------------------------------------------
 |--//12-------------12------12//15-------------15------15-
 |-----------------------------------------------------------
 |-----------------------------------------------------------

 |---------14---12------10---------------7---5-----3-------|
 |-------0----0----0-------0-----------0---0---0-----0-----|
 |---------------------------------------------------------|
 |--//12-------------12------12----5-----------5-----5//-| x2
 |---------------------------------------------------------|
 |---------------------------------------------------------|

 Meio 8:

 Guitarra 1

 |--0----0----0----0----0----0----0----0-0--|
 |--5----7----5----7----5----7----2----4-4--|
 |--6----8----6----8----6----8----2----6-5--|
 |--0----0----0----0----0----0----0----0-0--|
 |--7----9----7----9----7----9----4----6-6--|
 |--5----7----5----7----5----7----2----4-4--|

Parada: (The spies came out of the water...)

 Guitarra 1

 |--0----0----0----0---|--0----0----0----0--|
 |--5----4----5----2---|--2----2----5----4--|
 |--6----5----6----3---|--2----1----6----4--|
 |--0----0----0----0---|--0----0----0----0--|
 |--7----6----7----4---|--4----2----7----6--|
 |--5----4----5----2---|--2----0----5----4--|

 OUTRO:

 Guitarra 1

 |--0-----0-----0--0-0-0-0-0-0-0-0-0-0-0-0-0-0--|
 |--5-----5-----7--9-9-9-7-7-7-9-9-9-7-7-7-9-9--|
 |--6-----6-----8--8-8-8-8-8-8-8-8-8-8-8-8-8-8--|
 |--0-----0-----0--0-0-0-0-0-0-0-0-0-0-0-0-0-0--| x4
 |--4-----7-----9--9-9-9-9-9-9-9-9-9-9-9-9-9-9--|
 |--------5-----7--7-7-7-7-7-7-7-7-7-7-7-7-7-7--|

 Final

 |--0--|
 |--5--|
 |--6--|
 |--0--|
 |--4--|
 |-----|


Quer fazer uma correção nesta cifra?







    Comentários (0) Postar um Comentário

    Nenhum comentário encontrado. Seja o primeiro!