Cifra da música: God Put A Smile Upon Your Face - Coldplay

Esse cifra de Coldplay já foi acessado por 989 pessoas.

Comente

A música God Put A Smile Upon Your Face fez muito sucesso quando foi gravada por Coldplay. Quer conhecer a letra dela? Veja a letra de God Put A Smile Upon Your Face e cante.

Veja também o vídeo da música tocada.


Versão 1
-======-

Editada por: Carlos Eduardo Q. Santos (versão com os riffs e solos)



      Db        E         Eb             D
e|---1---1-----4---4-----3---3-----3-----2--|
B|---2---2-----5---5-----4---4-----4-----3--|
G|---1---1-----4---4-----3---3-----3-----2--|
D|-0---0---0-3---3---0-2---2---0-2---0-1---0|
A|------------------------------------------|
E|------------------------------------------|

Db          E          Eb	D
Where do we go, nobody knows
i've got to say i'm on my way down 
god gave me style and gave me grace 
God put a smile upon my face 

Db E Eb D Db (2x)

e|------------------------------|
B|--1412-9/12--129-5/8-----7-|
G|------------------------------|
D|------------------------------|   X2
A|------------------------------|
E|------------------------------|


Db          E              Eb	D
where do we go to draw the line 
i've got to say, i've wasted all your time, oh honey honey 
where do i go to fall from grace 
god put a smile upon your face, aww yeah 


A	     E	             F#m		A
ahh when you work it out i'm worse than you 
	     E              F#m		A
yeah when we work it out, i wanted to 
	    E	              F#m		A
now when we work out where to draw the line 
your guess is as good as mine...


e|------------------------------|
B|--1412-9/12--129-5/8-----7-|
G|------------------------------|
D|------------------------------|   X2
A|------------------------------|
E|------------------------------|


Db E Eb D Db (2x)

Db E Eb D
where do we go, nobody knows 
don't ever say you're on your way down, when 

Tocar várias vezes dentro de ()
e|------------------------------|
B|--(2)-2-4-5-4-2---------------|
G|------------------------------|
D|------------------------------|     X2
A|------------------------------|
E|------------------------------|
god gave you style and gave you grace 
and put a smile upon your face



A	     E	             F#m		A
ahh when you work it out i'm worse than you 
	     E              F#m		A
yeah when we work it out, i wanted to 
	    E	              F#m		A
now when we work out where to draw the line 
		 E		
your guess is as good as mine...


Db E Eb D
it's as good as mine,
it's as good as mine,

começa esse solo
e|------------------------------|
B|--(2)-2-4-5-4-2---------------|
G|------------------------------|
D|------------------------------|    
A|------------------------------|
E|------------------------------|
it's as good as mine,
no, no no, no no,
no, no no, no no,
		A	E
it's as good as mine,
	F#m	A
It's as good as mine,
(as good as mine)
as good as mine,
(as good as mine)
as good as mine,
(as good as mine)

---termina o solo

Db E Eb D
where do we go, nobody knows
don't ever say you're on your way down, when
god gave you style and gave you grace
and put a smile upon your face



_______________________________________________________
Contribuição: Sylvio Furtado([email protected]) 
Correção: Carlos Eduardo Quinhões Santos([email protected])
Correção: Mariana Dorna ([email protected])





Versão 2
-======-

Afinação:  Db Ab Db Gb C Eb

Bom, essa aqui é uma provável afinação. Tenho ainda duas dúvidas, pode
ser que a segunda corda seja afinada em Bb, mas em C soa legal.
Essa tablatura aqui embaixo é mais ou menos a os acordes que você tem 
que montar.
Seriam, NOMEANDO OS FORMATOS: D9 ( ou Dsus2), D5b e "G6".


-----------------------------------------
---3---3-----3---3-----3---3-----3-----3-
---2---2-----2---2-----1---1-----1-----0-
---0---0-----0---0-----0---0-----0-----0-
-----------------------------------------
-0---0---0-3---3---0-2---2---0-2---0-1---


---------------------------------------
---3---3-----3---3-----3---3-----3---3-
---2---2-----2---2-----1---1-----0---0-
---0---0-----0---0-----0---0-----0---0-
---------------------------------------
-0---0---0-3---3---0-2---2---0-1---1---

Bom, o refrão é o seguinte. Você faz o FORMATO de Bb sem o baixo,F7+ e
G7.Assim:

---------0-------0------
-3-------1-------5------
-3-------2-------3------
-3-------3-------4------
-0-------0-------0------
------------------------

Aki vai minha versão para o Riff:

--12-----------------------------------------
-----14-------12---12------------------------
---------13------------13--------------------
---------------------------14--17--16--11-----
----------------------------------------------
---------------------------------------------
Acho que está legal essa maneira, soa legal e vendo nos shows é assim
que o guitarrista faz. Tem outro solo que vocês podem pegar na
tablatura do Carlos Eduardo.
A Guitarra solo durante o refrão parece que faz os mesmos acordes que a
guitarra base, só que duas oitavas acima ( monte-os depois da 12 casa).
Quem tiver sugestões... fique 'a vontade ! 

Correção: Rafael Galavoti ([email protected])


Quer fazer uma correção nesta cifra?







    Comentários (0) Postar um Comentário

    Nenhum comentário encontrado. Seja o primeiro!