Cifra da música: Parachutes - Coldplay

Esse cifra de Coldplay já foi acessado por 776 pessoas.

Comente

A música Parachutes fez muito sucesso quando foi gravada por Coldplay. Quer conhecer a letra dela? Veja a letra de Parachutes e cante.

Veja também o vídeo da música tocada.


 Afinação- E A D G B E

 Toca duas vezes

    B          G#m
 |------------------------|
 |------------------------|
 |----8-----8----4-----4--|
 |------9----------6------| x2
 |--------9----------6----|
 |--7----------4----------|

    F#m          F#m          E            E
 |------------------------------------------------------|
 |------------------------------------------------------|
 |----2-----2------2-----2------1-----1------1-----1----|
 |------4-----4------4-----4------2-----2------2-----2--|
 |--------4------------4------------2------------2------|
 |--2------------2------------0------------0------------|


Quer fazer uma correção nesta cifra?







    Comentários (0) Postar um Comentário

    Nenhum comentário encontrado. Seja o primeiro!