Cifra da música: Everything´s Not Lost - Coldplay

Esse cifra de Coldplay já foi acessado por 776 pessoas.

Comente

A música Everything´s Not Lost fez muito sucesso quando foi gravada por Coldplay. Quer conhecer a letra dela? Veja a letra de Everything´s Not Lost e cante.

Veja também o vídeo da música tocada.


Difícil de transcrever em tablatura para guitarra, mas fácil de tocar ao piano. 
Quem toca piano entenderá melhor. 
                               

 Afinação Steard - E A D G B E

 Verso:

 |--0-----0-----0--|    |-----0----0--|
 |--0-----0-----3--|    |-----0----0--|
 |--1-----1-----1--|    |-----2----1--|
 |--2-----1-----0--| x3 |-----2----2--|
 |--2-----2-----2--|    |-----0----2--|
 |-----------------|    |-------------|

 Nas outras vezes, isto é tocado com uma leve variação:

 |--0-----0-----0-----0-----0--0--0--|
 |--0-----0-----3-----0-----0--0--0--|
 |--1-----1-----1-----2-----2--4--1--|
 |--2-----1-----0-----2-----2--4--2--|
 |--2-----2-----2-----4-----4--2--2--|
 |-----------------------------------|

Refrão:

olo:

 |--12-12-12-12-12-12-\-4-5--|
 |--------------------------------|
 |--------------------------------|
 |--------------------------------| Repita algumas vezes
 |--------------------------------|
 |--------------------------------|

 |-0---|    |--0-----0-----0---|
 |-0---|    |--0-----0-----0---|
 |-1---|    |--1-----0-----2---|
 |-2---| x1 |--2-----0-----2---|
 |-2---|    |--2-----2-----4---|
 |-----|    |------------------|

 (Come on yeah...) bit: 

 |--0----0----0--|
 |--0----3----0--|
 |--1----1----1--|
 |--2----0----2--| x 4 então retorna à parte do refrão.
 |--2----2----4--|
 |---------------|

 Break/Outro:

 |--0-----2-----2--|
 |--0-----3-----2--|
 |--1-----2-----2--|
 |--2-----4-----2--|
 |--2-----2-----4--|
 |--------------2--|

 ================================================================================================

 (11) - LIFE IS FOR LIVING (Música oculta) - Dedilhado simples. 

 ================================================================================================

 Afinação Steard  - E A D G B E with a Capo at Fret 1

    A   F#m7 Esus4 E  Dsus2 Bm7   A Asus4 A
 |--0----2-----0---0----0----2----0---0---0--|
 |--2----2-----0---0----3----3----2---3---2--|
 |--2----2-----2---1----2----2----2---2---2--|
 |--2----2-----2---2----0----4----2---2---2--|
 |--0----4-----2---2---------2----0---0---0--|
 |-------2-----0---0-------------------------|

 Break: 

 |--0---0---0----0---0---0--|-0---0---0--|
 |--0---2---3----0---0---0--|-0---2---3--|
 |--1---1---1----2---4---6--|-1---1---1--|
 |--2---2---2----0---0---0--|-2---2---2--|
 |--2---2---2---------------|-2---2---2--|
 |--0---0---0---------------|-0---0---0--|


Quer fazer uma correção nesta cifra?







    Comentários (0) Postar um Comentário

    Nenhum comentário encontrado. Seja o primeiro!