Cifra da música: Don´t Panic - Coldplay

Esse cifra de Coldplay já foi acessado por 805 pessoas.

Comente

A música Don´t Panic fez muito sucesso quando foi gravada por Coldplay. Quer conhecer a letra dela? Veja a letra de Don´t Panic e cante.

Veja também o vídeo da música tocada.


Versão 1
-======-

Tom: Am
Intro:  Fmaj7  x4
 

  Am                 C                  Fmaj7
  Bones sinking like stones all that we fought for
  Am                 C                    Fmaj7
  Homes places we've grown, all of us are done for

  Dm                              Am  
  We live in a beautiful world  
  G
  Yeah we do, yeah we do
  Dm                              Am 
  We live in a beautiful world 

  Am                 C                  Fmaj7
  Bones sinking like stones all that we fought for
  Am                 C                    Fmaj7
  Homes places we've grown, all of us are done for

  Dm                              Am  
  We live in a beautiful world  
  G
  Yeah we do, yeah we do
  Dm                              Am 
  We live in a beautiful world 

  Solo:    Am     C     Fmaj7     Fmaj7     x2

  Dm                              Am  
  We live in a beautiful world  
  G
  Yeah we do, yeah we do
  Dm                              Am 
  We live in a beautiful world 

  Am            C                             Fmaj7
  Oh all that I know, there's nothing here to run from
  Am                   C                      Fmaj7
  Cos' yeah, everybody here's got somebody to lean on








Versão 2
-======-

Para quem estiver interessado, o efeito usado chama-se 'flanger', eu acho.

 
 Afinação - E A D G B E

 Introdução:

 Guitarras 1 e 2

 |--0---0---0--x--|
 |--1---0-h-1--x--|
 |--2---0-h-2--x--|
 |--3---3---3--x--| Repita isso algumas vezes
 |--3---3---3--x--|
 |--1---1---1--x--|

 Verso:

 Guitarra 1

 |--0----0----0-------|
 |--1----1----1-------|
 |--2----0----2-------|
 |--2----2----3-------|
 |--0----3----3-------|
 |------------1-------|

 Guitarra 2

 |--5----8----0---0---0--x--0---0--x--|
 |--5----8----1---0-h-1--x--0-h-1--x--|
 |--5----9----2---0-h-2--x--0-h-2--x--|
 |--7---10----3---3---3--x--3---3--x--|
 |--7---10----3---3---3--x--3---3--x--|
 |--5----8----1---1---1--x--1---1--x--|

 Refrão:

 Guitarra 1

 |--1----0----0--|
 |--3----1----1--|
 |--2----2----0--|
 |--0----3----2--|
 |-------3----3--|
 |-------1-------|

 Guitarra 2

 |--5-5-5-5-5-5-5-5-7-7-7-8-8-8-8---------------------15----155-5-5-5-5-5-5-5-7-7-7-8-8-8-8-
 |--------------------------------5-5-5-5-5-5-5/10/13----13----------------------------------
 |-------------------------------------------------------------------------------------------
 |-------------------------------------------------------------------------------------------
 |-------------------------------------------------------------------------------------------
 |-------------------------------------------------------------------------------------------

 |------5-----------5------|
 |--5h6---5h6p5-5h6---5h6--|
 |-------------------------|
 |-------------------------|
 |-------------------------|
 |-------------------------|

 Repita o verso e o refrão

 Intervalo:

 Guitarra 1

 |--0----0----0-------|
 |--1----1----1-------|
 |--2----0----2-------|
 |--2----2----3-------|
 |--0----3----3-------|
 |------------1-------|

 Piano reescrito para guitarra

 |----------------------------------------------|
 |--5-8-6-5-5-8-6-5-3-1--5-8-6-5-5-8-6-5-6-5-1--|
 |----------------------------------------------|
 |----------------------------------------------|
 |----------------------------------------------|
 |----------------------------------------------|

 Repita o refrão

 Atravessar Guitarra

 Guitarra 1

 |--0----0----0-------|
 |--1----1----1-------|
 |--2----0----2-------|
 |--2----2----3-------| x2
 |--0----3----3-------|
 |------------1-------|

 Guitarra 2

 |-------12----12----12----12----12----12----12------------5-----------5--------|
 |--5/13----13----13----13----13----13----13----13--5h6---5h6p5-5h6---5h6p5--|
 |------------------------------------------------------------------------------|
 |------------------------------------------------------------------------------| x2
 |------------------------------------------------------------------------------|
 |------------------------------------------------------------------------------|

 Outro:

 Guitarra 1

 |--0----0----0-------|
 |--1----1----1-------|
 |--2----0----2-------|
 |--2----2----3-------| x2
 |--0----3----3-------|
 |------------1-------|

 Guitarra 2

 |--5----8----0---0---0--x--0---0--x--|
 |--5----8----1---0-h-1--x--0-h-1--x--|
 |--5----9----2---0-h-2--x--0-h-2--x--|
 |--7---10----3---3---3--x--3---3--x--| x2
 |--7---10----3---3---3--x--3---3--x--|
 |--5----8----1---1---1--x--1---1--x--|


Quer fazer uma correção nesta cifra?







    Comentários (0) Postar um Comentário

    Nenhum comentário encontrado. Seja o primeiro!