Cifra da música: Tudo Que Vai - Capital Inicial

Esse cifra de Capital Inicial já foi acessado por 1480 pessoas.

Comente

A música Tudo Que Vai fez muito sucesso quando foi gravada por Capital Inicial. Quer conhecer a letra dela? Veja a letra de Tudo Que Vai e cante.

Veja também o vídeo da música tocada.


Tom: A 

Introdução - A Bm D Dm
e|--------9-----(10)--|---------10----------|---------10----------|----------7--------------|
B|---10---10----------|-----12------12------|----10------10-------|----10------10-----------|
G|-9----9----9-9------|-11----11------11-11-|-11----11------11-11-|-10---10------10-10------|
D|--------------------|---------------------|---------------------|-------------------------|
A|--------------------|---------------------|---------------------|-------------------------|
E|--------------------|---------------------|---------------------|-------------------------|
 |                           J   U    N    T    O    S         |                     |
e|------------------|---------------------|----------0-----------|----------1---------|-(1)-|
B|-------2----(3)---|---------3-----------|-----3--------3-------|------3-------3-----|-(3)-|
G|----2-----2-------|-----4-------4-------|--2-----2--------2--2-|--2-----2-------2-2-|-(2)-|
D|--2---2-----2-2---|--4---4-------4--4---|0---------------------|0-------------------|-----|
A|0-----------------|-2-------------------|----------------------|--------------------|-----|
E|------------------|---------------------|----------------------|--------------------|-----|

 A        A7+
Hoje é o dia 
    D               Dm 
Eu quase posso tocar o silêncio 
   A      A7+ 
A casa vazia 
 D                 Dm 
Só as coisas que você não quis 
    A           A7+
Me fazem companhia 
    D                   Dm               Bm    D
Eu fico à vontade com a sua ausência... (aaaahhhh)
           Bm        D          Dm
Eu já me acostumei a esquecer 

|       A 
|Tudo que vai 
|       A5+         D
|Deixa o gosto, deixa as fotos 
|E   A 
|Quanto tempo faz 
|       A5+        D
|Deixa os dedos, deixa a memória 

    E 
Eu nem me lembro 
 A        A7+
Salas e quartos 
 D                   Dm 
Somem sem deixar vestígio 
     A         A7+
Seu rosto em pedaços 
 D                  Dm
Misturado com o que não sobrou 
    A         A7+
Do que eu sentia 
    D                        Dm         Bm  
Eu lembro dos filmes que eu nunca vi... 
   D      Bm             D        Dm
Passando sem parar em algum lugar 

|       A 
|Tudo que vai 
|       A5+         D
|Deixa o gosto, deixa as fotos 
|E   A 
|Quanto tempo faz 
|       A5+        D
|Deixa os dedos, deixa a memória 

    E             A 
Eu nem me lembro mais 
        A5+           D
Fica o gosto, ficam as fotos 
  E          A 
Quanto tempo faz 
         A5+           D
Ficam os dedos, fica a memória 
    E               (A Bm  D  Dm) -> dedilhado da introdução
Eu nem me lembro mais 
       (A               Bm               D   Dm) -> dedilhado da introdução
Quanto tempo, eu já nem sei mais o que é meu 
      A          A7+  D  Dm
Nem quando, nem onde 

|       A 
|Tudo que vai 
|       A5+         D
|Deixa o gosto, deixa as fotos 
|E   A 
|Quanto tempo faz 
|       A5+        D
|Deixa os dedos, deixa a memória 

   E               A 
Eu nem me lembro mais 
       A5+            D
Fica o gosto, ficam as fotos 
  E            A 
Quanto tempo faz 
         A5+            D
Ficam os dedos, fica a memória 
    E             A 
Eu nem me lembro mais 
    A5+         D
Eu nem me lembro mais 
    E              A 
Eu nem me lembro mais 
    A5+         D
Eu nem me lembro mais 
    E              (A Bm D Dm) -> dedilhado da introdução
Eu nem me lembro mais 

A5+:xx3221

______________________________________________________________





Quer fazer uma correção nesta cifra?







    Comentários (0) Postar um Comentário

    Nenhum comentário encontrado. Seja o primeiro!