Cifra da música: À Sua Maneira - Capital Inicial

Esse cifra de Capital Inicial já foi acessado por 3380 pessoas.

2.50 / 5 - 2
Comente

A música À Sua Maneira fez muito sucesso quando foi gravada por Capital Inicial. Quer conhecer a letra dela? Veja a letra de À Sua Maneira e cante.

Veja também o vídeo da música tocada.


Guitarra Base ou Violão: toca os acordes (Bm G D A) 

Guitarra Solo: toca os tricordes (B5 G5 D5 A5) nos versos e na introdução com as notas abaixo:

Guitarra Solo 1: Distorção 

       Bm         G  D  A
e|--------------------------------------------------------|
B|---------------8--7-------------------------------------|
G|--4-4-4-4-0-0--7--7--6-6-6-6-6--------------------------|
D|--4-4-4-4-0-0--------7-7-7-7-7--------------------------|
A|--------------------------------------------------------|
E|--------------------------------------------------------|

Guitarra Solo 2: Distorção 

     Bm           G  D  A
e|--------------------------------------------------------|
B|--------------------------------------------------------|
G|--------------------------------------------------------|
D|--4------------5--7--7-7-7-7-7--------------------------|
A|--2-x-x-x-x-x--5--5--7-7-7-7-7--------------------------|
E|--x------------3--x--5-5-5-5-5--------------------------|


intro: (Bm G D A) 2x

 Bm        G D    A               Bm    G D A
Ela dormiu    no calor dos meus braços
 Bm            G   D        A        Bm  G D A
E eu acordei sem saber se era um sonho
 Bm              G D     A            Bm  G D A
Algum tempo atrás     pensei em te dizer
Bm              G D                        Bm  G D A
Que eu nunca cai nas suas armadilhas de amor
Bm           G D    A      Bm   G D A 
Naquele amor    a sua maneira
Bm                 G D    A       Bm   G D A
Perdendo meu tempo   a noite inteira

S O L O 1
(Bm-G D A)-2x

Primeiro Solo

E|-----------------------------------------------------------|
B|-----------------------------------------------------------|
G|-----------------------------------------------------------|
D|-----------------------------------------------------------|
A|-2-4-4s5----5-5-4-2-0---0--2--0h2p0----2-4-4s5-5s7-7s9-----|
E|----------------------2------------------------------------|

E|----------------------------------------------------------|
B|----------------------------------------------------------|
G|-------7-7-----------7-7-------7--7-----------------------|
D|---9---7-7--9--------7-7-------7--7-----------------------|
A|-9---9------9---7s9--------7s9--------7p5--7s9s7p5-4-2----|
E|----------------------------------------------------------|


Bm           G D   A         Bm  G D A
Não mandarei   cinzas de rosas
Bm                  G D     A       Bm    G D A
Nem penso em contar   os nossos segredos
Bm           G D   A      Bm   G D A
Naquele amor   a sua maneira
Bm                 G D    A     Bm    G D A
Perdendo meu tempo   a noite inteira

Segundo Solo

E|---------------------------------------------------------|
B|--7s12----10----12----10----12----10---------------------|
G|-------11----11----11----11----11----11-----7s9---7---9--|
D|---------------------------------------------------------|
A|---------------------------------------------------------|
E|---------------------------------------------------------|

E|-----------------9/12-12-10-10-12-10-10-10-9-10-9-------|
B|--------------------------------------------------------|
G|-9--7--6h7p6--------------------------------------------|
D|--------------7-----------------------------------------|
A|--------------------------------------------------------|
E|--------------------------------------------------------|

E|--------------------------------------------------------|
B|-12-12-12-7-7-7-10-10-10-7-7-7s5-5-5s7-7-7s5-5-5s-3-3-3-|
G|--------------------------------------------------------|
D|--------------------------------------------------------|
A|--------------------------------------------------------|
E|--------------------------------------------------------|

E|--------------------------------------------------------|
B|-5-5-5-3-3-3-2h3h2--------------------------------------|
G|--------------------2s4~--------------------------------|
D|--------------------------------------------------------|
A|--------------------------------------------------------|
E|--------------------------------------------------------|

Bm       G D       A             Bm    G D A
Ela dormiu    no calor dos meus braços
 Bm            G   D        A        Bm  G D A
E eu acordei sem saber se era um sonho
 Bm               G D     A            Bm  G D A
Algum tempo atrás     pensei em te dizer
Bm              G D                        Bm  G D A
Que eu nunca cai nas suas armadilhas de amor
Bm           G D    A      Bm   G D A 
Naquele amor    a sua maneira
Bm                 G D    A       Bm   G D A
Perdendo meu tempo   a noite inteira
           Bm   G D A    
A noite inteira 
           Bm   G D A
A noite inteira
           Bm  G D A
A noite inteira 
           Bm   G D A
A noite inteira
                                  Bm
Ela dormiu no calor dos meus braços...

(solo com wah)

__________________________________________________




 







Quer fazer uma correção nesta cifra?







    Comentários (0) Postar um Comentário

    Nenhum comentário encontrado. Seja o primeiro!