Cifra da música: Independência - Capital Inicial

Esse cifra de Capital Inicial já foi acessado por 1527 pessoas.

5.00 / 5 - 1
Comente

A música Independência fez muito sucesso quando foi gravada por Capital Inicial. Quer conhecer a letra dela? Veja a letra de Independência e cante.

Veja também o vídeo da música tocada.


Intro: (C) (Am F)

Riff 1
  C
E|------------------|
B|------------------|
G|------------------|
D|-2-2-3-5--5-5-3-2-|
A|-3-3-3-3--3-3-3-3-|
E|------------------|

Riff 2
  Am             F
E|-------------------------|
B|-------1-------------1---|
G|-----2---2---------2---2-|
D|---2-------------3-------|
A|-0-------------3---------|
E|-------------------------|

Riff 3
   Am      F          F      
E|-----------------|-------8-8----------|
B|-4s5------5s6----|--5s6-------x-------|
G|-----5~-------5~-|--------------x-----|
D|-----------------|----------------x---|
A|-----------------|------------------x-|
E|-----------------|--------------------|

C          Cm7                           Cm7                           Riff 1
Toda essa curiosidade que você tem pelo que eu faço
Am               F         Am                 F                        Riff 2
Eu não gosto de me explicar, eu não gosto de me explicar
C            Cm7                  Cm7                                  Riff 1
Toda essa intensidade, buscamos identidade

Riff 4
  Bb             F
E|-------------------------|
B|-------3-------------1---|
G|-----3---3---------2---1-|
D|---3-------------3-------|
A|-1-------------3---------|
E|-------------------------|

Bb               F        Bb          F
Mas não sabemos explicar, não sabemos explicar
C          Cm7                           Cm7                           Riff 1
Se paro e me pergunto: será que existe alguma razão
Am           F      Am                 F          C                    Riff 2
Prá viver assim, se não estamos de verdade juntos

Riff 5
E|-----------------------|
B|-5-6-5-6-5-5-6-6-6-6-5-|
G|-5-5-5-5-5-5-5-5-5-5-5-|
D|-----------------------|
A|-----------------------|
E|-----------------------|


Am            G          F                               Am
Procuramos independência, acreditamos na distância entre nós
Am            G          F                                   (C Eb/C)
Procuramos independência, acreditamos na distância entre nós


C           Cm7                            Cm7                        Riff 1
Toda essa meia-verdade, a qual temos nos conformado
Am                 F       Am                F                        Riff 2
Só conseguimos nos afastar, nós aprendemos a aceitar
C              Cm7                     Cm7                            Riff 1
Tantas coisas pela metade, como essa imensa vontade 
Bb              F       Bb                F                           Riff 4
Que não sabemos explicar, que não sabemos saciar  
C                                                                     Riff 1
Se paro e me pergunto: será que existe alguma razão
Am           F      Am                 F                              Riff 2
Prá viver assim, se não estamos de verdade juntos

Riff 5

Am            G          F                               Am
Procuramos independência, acreditamos na distância entre nós
Am            G          F
Procuramos independência, acreditamos na distância entre nós

Solo:
E|-8-6-------------------------------------------------------|
B|-----8-7-6-------------------------------------------------|
G|------------8-5~~-------5---7~----5-5--------------5-7-7br-|
D|--------------------5h7---7-----7-----7-5-5--5h7-7---------|
A|-----------------------------------------------------------|
E|-----------------------------------------------------------|

E|--------------------------------------------|
B|----------------------5b--------------------|
G|-5---5-5-7-5----------5b-----5b-------------|
D|---7-----------5h7-7------7--5b------5------|
A|---------------------------------7-----7--3-|
E|--------------------------------------------|

Riff 5

Am            G          F                               Am
Procuramos independência, acreditamos na distância entre nós
Am            G          F                                Am
Procuramos independência, acreditamos na distância entre nós
G   F                Am      G      F                 C
   Nananara nananara    ahh yehh   nananara nananara

(C Eb/C)                               Riff 1
Toda essa curiosidade
Toda essa intensidade
Toda essa meia-verdade
Tantas coisas pela metade
Toda essa curiosidade
Toda essa intensidade (Finalização: C)


(transcrita por Gabriel Ysllu Chagas)
[email protected]





Quer fazer uma correção nesta cifra?







    Comentários (0) Postar um Comentário

    Nenhum comentário encontrado. Seja o primeiro!