Cifra da música: Fogo - Capital Inicial

Esse cifra de Capital Inicial já foi acessado por 2060 pessoas.

Comente

A música Fogo fez muito sucesso quando foi gravada por Capital Inicial. Quer conhecer a letra dela? Veja a letra de Fogo e cante.

Veja também o vídeo da música tocada.


De: Dinho/B. Barreti 
Intro.: Gm Bb Am

Dedilhado da intro.:
   Gm       Bb        Am
E|--------------------------------------|
B|-----3--------3----------1-------1----|
G|---3---3----3---3------2---2---2---2--|
D|--------5--------5-------------------2|
A|----------1---------0-------0-0-------|
E|-3------------------------------------|

Gm             Bb        Am                  Gm  Bb Am 
Humm... Você é tão acostumada a sempre ter razão 
  Gm           Bb        Am                        Gm    Bb Am 
Humm... Você é tão articulada quando fala não pede atenção 

daqui pra frente o dedilhado fica só assim.
E|------------------------------------|
B|-3-----3--3-----3--1-----1--1-----1-|
G|-3---3-3--3---3-3--2---2-2--2---2-2-|
D|---0--------0--------2--------2-----|
A|----------1-----1--0-----0--0-----0-|
E|-3-----3----------------------------|

    Gm     Bb        Am 
O poder de dominar é tentador 
          Gm    Bb   Am          Gm  Bb Am 
Eu já não sinto nada sou todo torpor 

      Gm    Bb                Am 
É tão certo quanto o calor do fogo 
      Gm    Bb                Am 
É tão certo quanto o calor do fogo 
       Gm              Bb         Am 
Já não tenho escolha e participo do seu jogo 
          Dm7 
Participo do seu jogo 

              C/D             Dm7 
Não consigo dizer se é bom ou mau 
              C/D           Bb 
Assim como o ar me parece vital 
                 C/Bb                 Bb 
Onde quer que eu vá o que quer que eu faça 

Nessa parte tem esse riffzinho
E|--------------|
B|-3-5-6--5-6-8-|
G|--------------|
D|--------------|
A|--------------|
E|--------------|

      Gm          Am    (Gm Bb Am) 
Sem você não, tem graça 

Solo:
E|-----------------------------------------------------------------|
B|---------------------------------------5-6-5-6--5-5--------------|
G|---------------------------------5-7----------------7-5---5h7-5~-|
D|---5-7-8-7---3---------------3-5---------------------------------|
A|-7-------------5-3~------3-5-------------------------------------|
E|-----------------------5-----------------------------------------|

 Gm                       Am                   Gm  Bb Am 
Humm... Você sempre surpreende e eu tento entender 
 Gm                       Am                        Gm       Bb Am 
Humm... Você nunca se arrepende Você gosta e sente até prazer 
         Gm    Bb           Am 
Mas se você me perguntar eu digo sim 
         Gm          Bb        Am           Gm  Bb Am 
Eu continuo porque a chuva não cai só sobre mim 

        Gm     Bb             Am 
Vejo os outros todos estão tentando 
        Gm    Bb                Am 
E É tão certo quanto o calor do fogo 
       Gm              Bb        Am 
Já não tenho escolha e participo do seu jogo 
          Dm7 
Participo do seu jogo 

              C/D             Dm7 
Não consigo dizer se é bom ou mau 
             C/D            Bb 
Assim como o ar me parece vital 
                 C/Bb                 Bb 
Onde quer que eu vá o que quer que eu faça 
  
E|--------------|
B|-3-5-6--5-6-8-|
G|--------------|
D|--------------|
A|--------------|
E|--------------|

     Gm         Am    (Gm Bb Am) 
Sem você não, tem graça 

Solo
E|-8~--6-5-3---------------------------------------------6s8~~--6-5-3----3-5b-|
B|------------6-5~--3-5--(5b6)-6-5-3-----------3-5-6-5-----------------6------|
G|------------------------------------(5~~~~)---------------------------------|
D|----------------------------------------------------------------------------|
A|----------------------------------------------------------------------------|
E|----------------------------------------------------------------------------|

E|--------------------------------------------------------|
B|----------------------------------------------5-6-5-----|
G|-------------------------3-5s7-7-5--7s5---7~~-------7-5-|
D|-------3-5s7-3-------3-5--------------------------------|
A|---3-5---------5~--5------------------------------------|
E|-5------------------------------------------------------|

      Gm    Bb                Am 
É tão certo quanto o calor do fogo 
      Gm    Bb                Am 
É tão certo quanto o calor do fogo 
       Gm              Bb        Am 
Já não tenho escolha e participo do seu jogo 
          Gm        Bb  Am 
Participo do seu jogo... 

      Gm    Bb                Am 
É tão certo quanto o calor do fogo 
      Gm    Bb                Am 
É tão certo quanto o calor do fogo 
       Gm              Bb        Am 
Já não tenho escolha e participo do seu jogo 
          Gm         Bb  Am                 Dm
Participo do seu jogo...       do seu jogo


---------------------------------------------------------------------------

Versão II

Substitua os acordes acima, acrescentando as dissonâncias de 7 e 7+.

Deste modo:

Gm  ------>  Gm7
Bb  ------>  Bb7+
Am  ------>  Am7
Dm  ------>  Dm7

Melhor formação para os acordes citados:

Gm7  (3xx331)
Bb7+ (6xx765)
Am7  (5xx553)
Dm7  (xx0211)

Tocada assim no violão, a música soa mais aberta, mais elaborada... experimente!!!



Quer fazer uma correção nesta cifra?







    Comentários (0) Postar um Comentário

    Nenhum comentário encontrado. Seja o primeiro!