Cifra da música: Quatro Vezes Você - Capital Inicial

Esse cifra de Capital Inicial já foi acessado por 1308 pessoas.

Comente

A música Quatro Vezes Você fez muito sucesso quando foi gravada por Capital Inicial. Quer conhecer a letra dela? Veja a letra de Quatro Vezes Você e cante.

Veja também o vídeo da música tocada.


Introd. (RIFF 6X) (Em A)

RIFF

e|-----------------------------------|
B|-----------------------------------|
G|-----------------------------------|
D|-----------------------------------|
A|-------2---------------------------|
E|-0--3-----3/5-5-5--5/3-----3-------|

Em            A                    Em
Rafaela está trancado há dois dias no banheiro
           A       Em                    A                    Em
Enquanto a sua mãe, toma Prozac, enche a cara e dorme o dia inteiro
       G            A
Parece muito, mas podia ser
Em            A                   Em
Carolina pinta as unhas roídas de vermelho
             A
Em vez de estudar
Em           A               Em
Fica fazendo poses nua no espelho
          G             A
Parece estranho, mas podia ser

REFRÃO
         G           Bm          
O que você faz quando
           G          Bm
Ninquém te vê fazendo
         C            D               A
O que você queria fazer se ninguém pudesse te ver  ?

(RIFF 4X) (Em A)

Em              A                     Em
Gabriel e a namorada se divertem no escuro
  A        Em                  A                 Em
E o seu pai acha tudo que ele faz errado e sem futuro
        G            A
É complicado, mas podia ser
Em       A                       Em
Mariana gosta de beijar outras meninas
            A
De vez em quando
Em            A                      Em
Beija meninos só pra não cair numa rotina
       G            A
É diferente, mas podia ser

REFRÃO
         G           Bm          
O que você faz quando
           G          Bm
Ninquém te vê fazendo
         C            D               A
O que você queria fazer se ninguém pudesse te ver  ? (2 X)

Solo: Em A

Ae galera, o solo abaixo não é igualzinho o da música tem algumas 
diferenças mas é melhor que nada não é? É que eu to sem a música aqui 
mas pelo que eu lembro é algo bem parecido com o que eu coloquei. 
Alguém mais pra frente deve corrigir ele. Valeu aí :)

-x-

e|------------------------------------------------------------------------------|
B|------------------------------------------------------------------------------|
G|------------------------------------------------------------------9-9-12--|
D|-------5-5/95---2--------2/4------4/5-5-5/7-7-7-7/9-9-9-11-9-11-9-9-9-9---|
A|--5--7---------7---5-2-4---------------------------------------------------------|
E|------------------------------------------------------------------------------|

E|----------------12------12------12------15------14---------------|
B|------------10/12---12-12---12-12---12-12---12-12----------------|
G|-9-9-12-etc-------------------------------------------|
D|-9-9-9------------------------------------------------|
A|------------------------------------------------------|
E|------------------------------------------------------|

E|-----12---12------17-17-17-15-15-15-15-15-15-15-15-15|
B|-/12---12---12-12-------------------------------------|
G|------------------------------------------------------|
D|------------------------------------------------------|
A|------------------------------------------------------|
E|------------------------------------------------------|

E|-----12------------12---------15-------14-------------|
B|-/12----12-12--------12-12------12-12----12-12-------|
G|------------------------------------------------------|
D|------------------------------------------------------|
A|------------------------------------------------------|
E|------------------------------------------------------|

E|-----12-------14-------15-15-15-14-14-14-12-12-------|
B|-/12---12-12-----12-12--------------------------------|
G|------------------------------------------------------|
D|------------------------------------------------------|
A|------------------------------------------------------|
E|------------------------------------------------------|
-x-

REFRÃO
         G           Bm          
O que você faz quando
           G          Bm
Ninquém te vê fazendo
         C            D               A
O que você queria fazer se ninguém pudesse te ver  ? (3 X)

(RIFF 4X)














Quer fazer uma correção nesta cifra?







    Comentários (0) Postar um Comentário

    Nenhum comentário encontrado. Seja o primeiro!