Cifra da música: Psicopata - Capital Inicial

Esse cifra de Capital Inicial já foi acessado por 722 pessoas.

Comente

A música Psicopata fez muito sucesso quando foi gravada por Capital Inicial. Quer conhecer a letra dela? Veja a letra de Psicopata e cante.

Veja também o vídeo da música tocada.


Tom: A 
Intr.: (A  D) 

Riff
E|--------------------------------------------------|
B|---5---6-5---------5-5--------5---6-5-------------|
G|-----7-----7-5-7-7-----7-5------7-----7-5-7-7-7-7-|2x
D|-7-------------------------7----------------------|
A|--------------------------------------------------|
E|--------------------------------------------------|

  A        D 
Papai morreu 
   A       D 
Mamãe também 
   A        D 
Estou sozinho 
       A           D 
Eu não tenho ninguém 
A    C    A      C 
Esta vida me maltrata 
   A    C        D        (A D) 
Estou virando um psicopata 

E|--------------------------------------------------|
B|---5---6-5---------5-5--------5---6-5-------------|
G|-----7-----7-5-7-7-----7-5------7-----7-5-7-7-7-7-|1x
D|-7-------------------------7----------------------|
A|--------------------------------------------------|
E|--------------------------------------------------|

     A           D 
Quebrei as janelas 
    A        D 
Da minha casa 
    A          D 
Rasguei a roupa 
    A       D 
Da empregada 
A    C    A      C 
Esta vida me maltrata 
   A     C 
Estou virando um 
D       (A D) (D F D Am7) 
psicopata 

E|--------------------------------------------------|
B|---5---6-5---------5-5--------5---6-5-------------|
G|-----7-----7-5-7-7-----7-5------7-----7-5-7-7-7-7-|1x
D|-7-------------------------7----------------------|
A|--------------------------------------------------|
E|--------------------------------------------------|

 D                  F 
Quero soltar bombas no Congresso 
 D                    Am7 
Fumo Hollywood para o meu sucesso 
 D               F 
Sempre assisto à rede Globo 
    D          Am7 
Com uma arma na mão 
 D               F 
Se aparece o Francisco Cuoco 
 D        Am7   (A D) 
Adeus televisão

E|--------------------------------------------------|
B|---5---6-5---------5-5--------5---6-5-------------|
G|-----7-----7-5-7-7-----7-5------7-----7-5-7-7-7-7-|2x
D|-7-------------------------7----------------------|
A|--------------------------------------------------|
E|--------------------------------------------------|

transcrita por Gabriel Ysllu Chagas



Quer fazer uma correção nesta cifra?







    Comentários (0) Postar um Comentário

    Nenhum comentário encontrado. Seja o primeiro!