Cifra da música: O Mundo - Capital Inicial

Esse cifra de Capital Inicial já foi acessado por 1463 pessoas.

Comente

A música O Mundo fez muito sucesso quando foi gravada por Capital Inicial. Quer conhecer a letra dela? Veja a letra de O Mundo e cante.

Veja também o vídeo da música tocada.


Repita esse solo enquanto estiver cantando a parte do 'Thuruthu thuruthu...'
(2 vezes na intro. e 1 vez quando for no meio da música) 
E-------------------------------------
B------------7-----5-----------------
G------------------------4-----------
D------------------------------------
A------------------------------------
E------------------------------------

E-------------------------------------
B------------7-----5-----------------
G------------------------4-----------
D------------------------------------
A------------------------------------
E-------------------------------------

E------------------------------------
B------------7---5-----7---5------
G----------------------------------
D-----------------------------------
A------------------------------------
E----------------------------------- 

E-------------------------------------
B------------7-----5-----------------
G------------------------4-----------
D-------------------------------------
A-------------------------------------
E-------------------------------------
 

E                 A           C#m 
Thuruthu thuruthu thuru thuru thuruthu 
E                 A           C#m 
Thuruthu thuruthu thuru thuru thuruthu 
E 
Você que já esteve no céu 
                          A 
Foi tudo divertido pra você? 
                        C#m 
Chega a hora então de provar tudo que existe 
E 
Tire agora os sapatos jogue tudo pro alto sinta o chão 
A                                              C#m 
Pra aprender a andar descalço nesse mundo de asfalto e sem coração 
 B              E              A 
Até que o mundo gire ao seu redor 

E                 A           C#m 
Thuruthu thuruthu thuru thuru thuruthu 

 E 
Obrigado por passar mas estou de saída 
                            A 
Tem alguma coisa nova pra fazer? 
                      C#m 
Vamos lá então ter um dia diferente 
E 
Eu só quero curtir ficar a toa viver numa boa 
A                          C#m 
E você quer respostas exige provas músicas novas 
B             E                A
Até que o mundo gire ao seu redor 
F#m 
Vão falar que você não é nada 
A 
Vão falar que você não tem casa 
E               B                 C#m 
Vão falar que você não merece que anda bebendo e está perdido 
F#m 
E não importa o que você dissesse 
A 
Você seria desmentido 
E               B             C#m 
Vão falar que você usa drogas e diz coisas sem sentido 
A                          C#m          B           A
Se eu for ligar para o que é que vão falar não faço nada 
E 
Eu procuro tentar entender 
                                   A
Porque eu sou tão importante pra você 
                             C#m 
Já que é bem melhor ser importante pra si mesmo 
E 
Eu não quero mudar ser mais discreto ser mais esperto 
A                                C#m 
Já cansei de propostas de dar respostas e ter que dar certo 
 B              E              A
Até que o mundo gire ao meu redor 
F#m 
Vão falar que você não é nada 
A 
Vão falar que você não tem casa 
E               B                 C#m 
Vão falar que você não merece que anda bebendo e está perdido 
F#m 
E não importa o que você dissesse 
A
Você seria desmentido 
E               B             C#m 
Vão falar que você usa drogas e diz coisas sem sentido 
A                          C#m          B           A 
Se eu for ligar para o que é que vão falar não faço nada 
E                  A           C#m 
Thururthu thuruthu thuru thuru thuruthu 
E                 A           C#m 
Thuruthu thuruthu thuru thuru thuruthu 



 



Quer fazer uma correção nesta cifra?







    Comentários (0) Postar um Comentário

    Nenhum comentário encontrado. Seja o primeiro!