Cifra da música: Como Devia Estar - Capital Inicial

Esse cifra de Capital Inicial já foi acessado por 973 pessoas.

Comente

A música Como Devia Estar fez muito sucesso quando foi gravada por Capital Inicial. Quer conhecer a letra dela? Veja a letra de Como Devia Estar e cante.

Veja também o vídeo da música tocada.


INTRO (E Em F)2x E Em (Em)

F#m              A   B       E
Folhas verdes caem no jardim
F#m              A   B       E
Coisas que começam pelo fim
F#m              B4  B
Como chuvas de verão
F#m                B4  B
Caindo em outra estaçao

Aonde quer que eu vá 


Refrão
  	
A C#m A   E  F#m  A             E 
Haha, um dia tudo volta para seu lugar
A C#m A   E  F#m  A             E 	
Haha, um dia vai ficar como devia estar
F#m    A   B         E	
Vai ficar, como devia estar

INTRO

F#m              A   B       E
Prédios derretendo sob o céu
F#m              A   B       E
Sonhos construidos com papel
F#m              B4  B
Carros vem e vão
F#m              B4  B          
Correndo em minha direção


Repete Refrao

solo 

e|-----------------------------------------------------|
B|-----------------------------------------------------|
G|-----------------2p1--------------------------2p1-4--|
D|------2-2---2--------2--------------2-2---2----------|
A|--2h4-----4---4--------2h4-2----2h4-----4---4--------|
E|-----------------------------------------------------|

e|-----------------------------------------------------|
B|-----------------------------------------------------|
G|--9-9-8-8-6-6-4-4-2-2-1-1-0-1------------------------|
D|--------------------------------4--------------------|
A|-----------------------------------------------------|
E|-----------------------------------------------------|

F#m              B4  B
Como chuvas de verão
F#m                B4  B
Caindo em outra estaçao

Aonde quer que eu vá 

Refrão 

INTRO

______________



 



Quer fazer uma correção nesta cifra?







    Comentários (0) Postar um Comentário

    Nenhum comentário encontrado. Seja o primeiro!