Cifra da música: Cai a Noite - Capital Inicial

Esse cifra de Capital Inicial já foi acessado por 1362 pessoas.

Comente

A música Cai a Noite fez muito sucesso quando foi gravada por Capital Inicial. Quer conhecer a letra dela? Veja a letra de Cai a Noite e cante.

Veja também o vídeo da música tocada.


Versão 1:

Tom: D 
Intro.: Riff 1 e Riff 2

                   
   D               Dsus4 
   Cai a noite na cidade 
   D         Dsus2 
   Vinda de lugar nenhum 
   D             Dsus4 
   E o dia vai embora 
   D         Dsus2 
   Indo pra lugar algum 
   D          Dsus4     3A
   Não sentia fome 
   D           Dsus2    3B
   Não sentia frio 
   D          Dsus4     3A
   Sentado num canto 
   D       Dsus2        3C
   De um quarto vazio 

   (2ª Parte do Refrão )   

   Sombras e pensamentos 
   De um sonho só esperança 
   Nas paredes ecoavam 
   O silêncio e a lembrança 
   Entre ruas desertas 
   Ele está só de passagem  
   Da vertigem e tontura 
   Surgiam todo tipo de imagens 

REFRÃO:

  |   Cadd9         G/B 
  |   Quando a chuva cai 
  |   Gm/Bb        D 
  |   Nas noites mais solitárias 
  |   Cadd9          G/B 
  |   Lembre-se que sempre 
  |   Gm/Bb    D   Dsus2
  |   Estarei aqui 
  |
  |   Cadd9           G/B 
  |   Quando a chuva cai 
  |   Gm/Bb          D           Dsus2
  |   Nas noites mais solitárias       
  |   Cadd9        G/B      Gm/Bb   Riff 2   
  |   Lembre-se que sempre...      
 	
PONTE: 

   Dm                         Riff 4A
   Se virou e alcançou o céu
   Dm                         Riff 4A
   E a última estrela 
   Dm                         Riff 4A
   Nada deixava passar 
   Dm                         Riff 4B
   Tudo lembrava ela 

(Refrão)

Encerramento: Riff 1 

--------------------------------------------------------------------------

Riff 1

        Cadd9            G/B               Gm/Bb             D     Dsus2
   e|---------3----------------3-----------------3--------|----2-2-0------|
   B|------3-----3----------3-----3-----------3-----3-----|----------3----|
   G|----0---------0------0---------0-------0---------0---|-------2-------|
   D|---------2----------------0-----------------0--------|-0-------------|
   A|--3----------------2-----------------1---------------|---------------|
   E|-----------------------------------------------------|---------------|
                                                           Nesse trecho, há
                                                           um outro dedilhado
                                                           executado por outro
                                                           violão
 Riff 1 (continuação)
         Cadd9           G/B                 Gm/Bb
   e|---53---3--------5-53----3--------5-53----3--------|
   B|---53-----3--------53------3--------53------3------|
   G|-------0-----0----------0------0----------0------0----|
   D|------------------------------------------------------|
   A|---0-----3----------0------2----------0------1--------|
   E|------------------------------------------------------|

Riff 2:
        D   Dsus4 D  Dsus2  D      D     G  Am G  Am
   e|--2-2----3---2---0-----2-2--|-2-2---7--5--3--5-5--|
   B|--3-3----3---3---3-----3-3--|-3-3---8--5--3--5-5--|
   G|--2-2----2---2---2-----2-2--|-2-2---7-------------|
   D|----------------------------|---------------------|
   A|----------------------------|---------------------|
   E|----------------------------|---------------------|

  Riff 3A       Riff   3B   Riff 3C      Riff 4A      Riff 4B
e|------------|-----------|------------|-----------|-------------|
B|------------|-----------|------------|-----------|-------------|
G|------------|-----------|---0--------|-----------|-------------|
D|---2--4-----|---2--0----|-----2-0----|---------0-|--------0----|
A|------------|-----------|---------3--|---0h2-3---|---0h2----3--|
E|------------|-----------|------------|--3--------|-3-----------|




Quer fazer uma correção nesta cifra?







    Comentários (0) Postar um Comentário

    Nenhum comentário encontrado. Seja o primeiro!