Cifra da música: Algum Dia - Capital Inicial

Esse cifra de Capital Inicial já foi acessado por 1070 pessoas.

Comente

A música Algum Dia fez muito sucesso quando foi gravada por Capital Inicial. Quer conhecer a letra dela? Veja a letra de Algum Dia e cante.

Veja também o vídeo da música tocada.


E				D9
Ninguém nunca te disse como ser tão imperfeito
         C#m
Você tem tão poucas chances de alcançar o seu destino
  F#m                B
É fácil fazer parte de um mundo tão pequeno
      D9
Onde amigos invisíveis nunca ligam outra vez
    F#m          B                 E
Talvez até porque ninguém ligue pra você 
  A                          B
Se você quer que eu feche os olhos
                   G#m                C#m
Pra alguém que foi viver algum dia lá fora
  A                B
E neste dia se o mundo acabar 
        G#m                    C#m      B
Não vou ligar pra aquilo que eu não fiz
                  E		D9
Faz muito pouco tempo aprendi a aceitar
            C#m
Quem é dono da verdade, não é dono de ninguém 
               F#m                B
Só não se esqueça que atrás do veneno das palavras
     D9
Sobra só o desespero de ver tudo mudar
    F#m             B             E
Talvez até porque ninguém mude por você   
  A                          B
Se você quer que eu feche os olhos
                   G#m                C#m
Pra alguém que foi viver algum dia lá fora
  A              B
E neste dia se o mundo acabar 
        G#m                    C#m      
Não vou ligar pra aquilo que eu não fiz

(solo)   A   B   D9

SOLO 1

e|----------------------------------------------------------------------
B|----------------------------------------------------------------------
G|----6-8~~~~-9-8-6h8p6------------------6/8-8/9-9/11-11/13-13/15-15/16-
D|--7-------------------9-7-7h6p7---------------------------------------
A|--------------------------------9-------------------------------------
E|----------------------------------------------------------------------

e|----------------------------------------------------------------------
B|-15-15-15-------------------------------------------------------------
G|-16-16-16-14-14-14-14-14----15-15-15-17-17-17-17-15-17/0--------------
D|----------14-14-14-14-14-14-------------------------------------------
A|----------------------------------------------------------------------
E|----------------------------------------------------------------------


    F#m    B                        E
Talvez até porque ninguém ligue pra você 
(  A                         B
Se você quer que eu feche os olhos
                   G#m                C#m
Pra alguém que foi viver algum dia lá fora
  A              B
E neste dia se o mundo acabar 
        G#m                    C#m      
Não vou ligar pra aquilo que eu não fiz   )    2x   A  B
( A B)
O mundo é lá fora
(A B)
A vida é lá fora

SOLO 2 (Final)

e|---11h12p11----------------11h12p11-----------------------------------
B|------------12-------12-------------12-------12-----------------------
G|---------------13-13----13-------------13-13----13--------------------
D|----------------------------------------------------------------------
A|----------------------------------------------------------------------
E|----------------------------------------------------------------------


e|--11h12p11------------------11h12p11----------------------------------
B|------------12-------12--------------12-------12----------------------
G|---------------13-13----13--------------13-13----13/14-13-11-8~~~~~~--
D|----------------------------------------------------------------------
A|----------------------------------------------------------------------
E|----------------------------------------------------------------------


e|---------------------------11h12p11----------11-12--------------------
B|------------------------------------14-12-14-------12-----------------
G|-8-8-9-9-11-11-13-13-15-15--------------------------------------------
D|----------------------------------------------------------------------
A|----------------------------------------------------------------------
E|----------------------------------------------------------------------





Quer fazer uma correção nesta cifra?







    Comentários (0) Postar um Comentário

    Nenhum comentário encontrado. Seja o primeiro!