Cifra da música: 220 Volts - Capital Inicial

Esse cifra de Capital Inicial já foi acessado por 653 pessoas.

Comente

A música 220 Volts fez muito sucesso quando foi gravada por Capital Inicial. Quer conhecer a letra dela? Veja a letra de 220 Volts e cante.

Veja também o vídeo da música tocada.


Versão 1
-======-

Intro. Riff
Riff.
E|------------------------------|
B|-----------------------2p0----|
G|-----------------------2p0----|
D|----------------------------2-|
A|----------------------------2-|
E|-0-2-0-3-0--0-3-0-5-0---------|

Em
Mãos no volante           
Duzentos metros atras     Riff
E5
pés no espelho 
duzentos cigarros depois  Riff

B5
Dedos na parede
    C5
Tubaroes na minha rede 
     B5
Gasolina mata a sede
  G5      A5      E5
Duzentos e vinte volts    Riff

Em
freios sem controle
milhoes de cilindradas na mão   Riff
Em
Fogo no asfalto
Queimando borracha e metal  Riff

B5
Dedos na parede
    C5
Tubaroes na minha rede 
     B5
Gasolina mata a sede
  G5     A5       E5
Duzentos e vinte volts    Riff

Em
Cento e dez, Cento e trinta
         A
megaheats, meia pista
       Em           B5
Decibeis, mega bytes
  C5        D5    Em
Duzentos e vinte volts

E|------------------------------|
B|-----------------------0------|
G|-----------------------2bp0---|
D|----------------------------2-|
A|----------------------------2-|
E|-0-2-0-3-0--0-3-0-5-0---------|


B5
Dedos na parede
    C5
Tubaroes na minha rede 
     B5
Gasolina mata a sede
  G5      A5      E5
Duzentos e vinte volts   

Transcrita por:Gabriel Ysllu Chagas









Versão 2
-======-

Intro. Riff

Riff
E|----------------------------|
B|----------------------------|
G|----------------------2-----|
D|----------------------2-----|
A|-0-3-0-5-0--0-3-0-5-0-0-0---|
E|-0-3-0-3-0--0-3-0-3-0---0---|

Em
Mãos no volante           
Duzentos metros atras     Riff
Em
pés no espelho 
duzentos cigarros depois  Riff

B5
Dedos na parede
    A5
Tubaroes na minha rede 
     B5
Gasolina mata a sede
 A5                   Em
Duzentos e vinte volts     Riff

Em
freios sem controle
milhoes de cilindradas na mão   Riff
Em
Fogo no asfalto
Queimando borracha e metal  Riff

B5
Dedos na parede
    A5
Tubaroes na minha rede 
     B5
Gasolina mata a sede
 A5                   Em
Duzentos e vinte volts     Riff

Em
Cento e dez, Cento e trinta
      A
megaheats, meia pista
       Em           B5
Decibeis, mega bytes
A5            Em
Duzentos e vinte volts

Riff


B5
Dedos na parede
    A5
Tubaroes na minha rede 
     B5
Gasolina mata a sede
 A5                 Em
Duzentos e vinte volts   
 
 
Riff



Quer fazer uma correção nesta cifra?







    Comentários (0) Postar um Comentário

    Nenhum comentário encontrado. Seja o primeiro!