Cifra da música: Vai Me Perdoando - Victor e Leo

Esse cifra de Victor e Leo já foi acessado por 986 pessoas.

Comente

A música Vai Me Perdoando fez muito sucesso quando foi gravada por Victor e Leo. Quer conhecer as demais músicas? Conheça as letras das músicas gravadas por Victor e Leo e aproveite.

Veja também o vídeo da música tocada.


Tom: A

Intro 2x: F#m  D  A  E

Solo

E|------------------------------------------|
B|-7-7--------------7-7---------------------|
G|-----6-6-6-6-6-6------6-6-6-6-6-6---------|
D|------------------------------------------|
A|------------------------------------------|
E|------------------------------------------|

E|------------------------------------------|
B|------------------------------------------|
G|-7-7--------------7-7---------------------|
D|-----7-7-7-7-7-7------7-7-7-7-7-7---------|
A|------------------------------------------|
E|------------------------------------------|

E|------------------------------------------|
B|------------------------------------------|
G|-6-6--------------6-6---------------------|
D|-----7-7-7-7-7-7------7-7-7-7-7-7---------|
A|------------------------------------------|
E|------------------------------------------|

E|------------------------------------------|
B|------------------------------------------|
G|-4-4--------------4-4---------------------|
D|-----7-7-7-7-7-7------7-------------------|
A|------------------------------------------|
E|------------------------------------------|

            F#m
Vai me perdoando
                                                D
Esse meu jeito estranho eu sei que fez você sofrer
                                        A
Tudo era mentira e você quis pagar pra ver
                             E
Sei que é a hora, hora de dizer adeus

            F#m
Vai me perdoando
                                              D
Esquece aqueles planos tudo o que eu te prometi
                                      A
Sei que é difícil encarar que seja o fim
                E
Mas vai me perdoando enfim

         F#m
Vai perdoando alguém que sempre só quis o seu bem
           D
E vai lembrando que o ser humano erra também
             A
Nunca mais chore por amor
                      E
Perdoa, por favor, entenda
         F#m
Vai perdoando que o destino te trará alguém
         D
E com os anos você vai se esquecer, meu bem
             A
Nunca mais chore por amor
                      E
Perdoa, por favor, entenda

Solo: F#m  D  A  E


Quer fazer uma correção nesta cifra?







    Comentários (0) Postar um Comentário

    Nenhum comentário encontrado. Seja o primeiro!