Cifra da música: Amigo Apaixonado - Victor e Leo

Esse cifra de Victor e Leo já foi acessado por 2780 pessoas.

3.67 / 5 - 3
Comente

A música Amigo Apaixonado fez muito sucesso quando foi gravada por Victor e Leo. Quer conhecer a letra dela? Veja a letra de Amigo Apaixonado e cante.

Veja também o vídeo da música tocada.


Neste início, até a palavra "bonito", toca-se as notas apenas pessionando, 
juntas, as cordas D e G, aplicando o ritmo. Para pegar o ritmo ouça a música.

G                                 D9/F# 
Pensando bem eu gosto mesmo de você 
                      Em 
Pensando bem quero dizer 
    Am                 D
Que amo ter te conhecido 
         G                        D9/F# 
Nada melhor que eu deixar você saber 
                        Em 
Pois é tão triste esconder  

Am                D         e|-----3h2—--0--------|
Um sentimento tão bonito    B|---------3----------| 
    			    G|--------------------|

      C                      Cadd9       
Hoje mesmo vou te procurar 
G         
Falar de mim 
         C                    Cadd9 
Sei que nem chegou a imaginar 
          G                      D     e|----------5----|
Que eu pudesse te amar tanto assim     B|---------------|
                                       G|---4/5—--------|

     G               D    G7M    Em 
     Sempre fui um grande amigo seu 
                     C      Cadd9       G 
     Só que não sei mais se assim vai ser 
                  D     G7M       C  
R    Sempre te contei segredos meus 
e    Cadd9         D         G 
f    Estou apaixonado por você 
r                   D G7M     Em 
ã    Esse amor entrou no coração 
o                    C    Cadd9      G 
     Agora diz o que é que a gente faz 
                 D             C 
     Pode dizer sim ou dizer não 
     Cadd9         D          G 
     Ser só seu amigo não dá mais

(Solo)(G D Em C G D C D G G)

e|--15-----15-----15--17-----17-----17--15-----15--15--15-15/14-14-14/12-12-12/10-10/7-7-7/5-5—5~-------5-7-7-5------
b|16--16-16--16-16--16--15—15--15-15--16--16-16--16--16-------------------------------------------5/7-8---------8-8~---

e|----------------7/10|--7/5-5/3-3|
B|-8-10-10b-8---8-----|-----------|
G|------------9-------|--7/5-5/4-4|

         G                        D D4 D
Nada melhor que eu deixar você saber 
                        Em 
Pois é tão triste esconder             
    Am                 D        e|-------0-2-0-3-3-3/5-5-5--|
Um sentimento tão bonito        B|-----3--------------------|
                                G|---2----------------------|
                                D|-0------------------------|

      C                    G 
Hoje mesmo vou te procurar Falar de mim 
         C 
Sei que nem chegou a imaginar 
        G                        D    e|---------5----|
Que eu pudesse te amar tanto assim    B|--------------|
                                      G|---4/5—-------|

(Obs.:) nessa parte faz-se dedilhados com as notas.

(REFRÃO)

(Obs.:) Agora que a musica "pesa" de novo com arpejos nas oitavas que começa após o grito (Não dá mais!)

os arpejos são os seguintes:

(Passagem) 
e|--5-----5------|  
B|----8-----8----|   2X
G|7-----7-----7--|

G ( sempre fui um... )
e|-7--7---7|
B|--8--8---|
G|7--7--7--|

D ( grande amigo... )
e|-5--5---5|
B|--7--7---|
G|7--7--7--|

Em ( seu...só que não sei... )
e|-3--3---3|
B|--5--5---|
G|4--4--4--|

C ( mas se assim vai ser )
e|-3--3---3|
B|--5--5---|
G|5--5--5--|

G ( sempre te con... )
e|-7--7---7|
B|--8--8---|
G|7--7--7--|

D ( tei segredos... )
e|-5--5---5|
B|--7--7---|
G|7--7--7--|

C ( ..meus..estou apaixo...)
e|-3--3---3|
B|--5--5---|
G|5--5--5--|

D ( ...nado por vocÊ... )
e|-5--5---5|
B|--7--7---|
G|7--7--7--|

G ( Esse amor en... )
e|-7--7---7|
B|--8--8---|
G|7--7--7--|

D ( ...trou no coração... )
e|-5--5---5|
B|--7--7---|
G|7--7--7--|

(Pausa)

Em
e|12-12-12|
B|12-12-12|
G|12-12-12|

C ( ..agora diz o que é que a gente faiz...)
e|-3--3---3|
B|--5--5---|
G|5--5--5--|

G ( Pode dizer... )
e|-7--7---7|
B|--8--8---|
G|7--7--7--|

D ( Sim ou dizer... )
e|--10---10---10|
B|---10---10----|
G|11--11---11---|

C ( Não...ser só seu...)
e|-8--8---8|
B|--8--8---|
G|9--9--9--|

D (amigo)
Não dá mais!!! 
G ( sol ) pra terminar....

Obs.:
Cadd9 - O mesmo que o C sem o dedo dois na corda ré
G7M - O mesmo que um D, só que ao invés do dedo 1 apertar a corda sol, ele aperta a corda lá na segunda casa



Quer fazer uma correção nesta cifra?







    Comentários (0) Postar um Comentário

    Nenhum comentário encontrado. Seja o primeiro!