Cifra da música: Lembranças de Amor - Victor e Leo

Esse cifra de Victor e Leo já foi acessado por 2122 pessoas.

1.50 / 5 - 2
Comente

A música Lembranças de Amor fez muito sucesso quando foi gravada por Victor e Leo. Quer conhecer a letra dela? Veja a letra de Lembranças de Amor e cante.

Veja também o vídeo da música tocada.


O Victor usa o capotrastre na segunda casa.Se For Usar abaixe um tom

Introdução: 
                     D                     Bm                          D
e|----5-5-------------------5-5-------------------------------------------|
B|--------7-7-5-5-3-5h7h5-------7-7-5-5-3-3/5-3---3-----3-3---------------|
G|----------------------------------------------4-----------4-4-2-2---2h4-|
D|------------------------------------------------------------------4-----|
A|------------------------------------------------------------------------|
E|------------------------------------------------------------------------|
                   Bm            A
e|------------------------------------------------------------------------|
B|--3-3-------------------------------------------------------------------|
G|------4-4-2-2---2H4-------2-4-4/6---------------------------------------|
D|--------------4---------4-----------------------------------------------|
A|------------------------------------------------------------------------|
E|------------------------------------------------------------------------|

** Efeito 1
B|----2h3p2-----------
G|-----------4----2---
D|-------------2h4----

Bm       G 
Veja só 
                     
Sei que palavras não consertam nada mais 
            D    D7+
Eu acho que é melhor **
         A          
A gente conversar

Bm       G         Efeito 
Afinal             e|----5h7/5-|
                   B|--3-------|
                                             D     D7+
Nosso caso não difere de outros casos que acabaram mal
       A
Só pra te lembrar
         G                          A              D      A  
Eu já sofri demais, mas longe de você sofrerei bem maaa-ais...

   Refrão
     D                                           Em
   Preciso te dizer o que acontece com meu sentimento
            A
   Chego em casa e não te vejo
                           Bm
   Meu desejo é te ligar correndo
     D                                        Em
   E pouco a pouco a solidão e o silêncio me abraçam
          G
   Minha alegria passou
            A                        Bm
   Só as lembranças de amor... não passam

                     D                     Bm                          D
e|----5-5------------------5-5--------------------------------------------|
B|--------7-7-5-5-3-5h7/5-------7-7-5-5-3-3/5-3---3-----3-3---------------|
G|----------------------------------------------4-----------4-4-2-2---2h4-|
D|------------------------------------------------------------------4-----|
A|------------------------------------------------------------------------|
E|------------------------------------------------------------------------|
                   Bm            A
e|------------------------------------------------------------------------|
B|--3-3-------------------------------------------------------------------|
G|------4-4-2-2---2H4-------2-4-4/6---------------------------------------|
D|--------------4---------4-----------------------------------------------|
A|------------------------------------------------------------------------|
E|------------------------------------------------------------------------|


Bm       G
Afinal              Efeito 
                    (e|---7h5/5-|)
                    (B|-3-------|)
                                           D       D7+
Nosso caso não difere de outros casos que acabaram mal
       A
Só pra te lembrar
         G                          A              D    A
Eu já sofri demais, mas longe de você sofrerei bem maaa-ais...

    Refrão


Quer fazer uma correção nesta cifra?







    Comentários (0) Postar um Comentário

    Nenhum comentário encontrado. Seja o primeiro!