Cifra da música: Unchained - Van Halen

Esse cifra de Van Halen já foi acessado por 685 pessoas.

Comente

A música Unchained fez muito sucesso quando foi gravada por Van Halen. Quer conhecer a letra dela? Veja a letra de Unchained e cante.

Veja também o vídeo da música tocada.


-2--3------------------------------------
-3--3----------------3--4-3----5--6-5----
-2--2----------------3--3-3----5--5-5----
-0--0----------------3--3-3----5--5-5----
-----------------------------------------
------0x-0x-0x-0x-0x--------0x--------0x-

-2--3----------------5--6-5-------------
-3--3----------------6--6-6---6-5-------
-2--2----------------5--5-5---5-5-------
-0--0-----------------------0-5-5-------
----------------------------------------
------0x-0x-0x-0x-0x--------------0x-0x-


Now for the verse. Repeat this twice.....

------------------------------------------------------------------
-----------------------------------------------------10-10---8----
----------------------3------5--------------------/7-------9---7--
--------------------3----------5----------------------------------
-3-5----3-------3/5-----5-/7-------3-5----3-----------------------
-----0x---0x-0x------------------------0x---0x-0x-----------------

..and then go onto this for the 'blue-eyed murder in a sapphire dress'
part.....

--------------------------------------------------------------------
--------------------------------------------------------------------
-7-7----75/7------7-7---75/7-------9-9---97/9-----9-9------------
-5-5----53/5------5-5---53/5-------7-7---75/7-----7-7------------
--------------------------------------------------------------------
-----3--------3-1------3-------3-/5------5-------5-3-----3/5-4-3-1--


Now for the solo. Whammied notes are signified with w's, tapped
notes with t's. The 5^ note is an artificial harmonic created with the
thumb of your picking hand. Gaze skyward, whisper a quick prayer to
the gods of rock and roll, and attempt this. :

-------22w20-----------------------------------------------
-20w18-----------------------------------------------------
-----------------t12p5h7t12p5h7t12p5h7t125b7r5p3p0-5^-p3p0-
-------------3/5-------------------------------------------
-----------------------------------------------------------
-----------------------------------------------------------

13p10-13p10-13p10--13p10-13w12b15-12-13-14-15p14p12----------12-------
----------------------------------------------------15-13b14----13----
-------------------------------------------------------------------14-
----------------------------------------------------------------------
----------------------------------------------------------------------
----------------------------------------------------------------------


-17-15-b17r15b17r15----19-17-20-19-20b22r20b22--
--------------------17--------------------------
------------------------------------------------
------------------------------------------------
------------------------------------------------
------------------------------------------------



Quer fazer uma correção nesta cifra?







    Comentários (0) Postar um Comentário

    Nenhum comentário encontrado. Seja o primeiro!