Cifra da música: I can't stop lovin' you - Van Halen

Esse cifra de Van Halen já foi acessado por 1262 pessoas.

Comente

A música I can't stop lovin' you fez muito sucesso quando foi gravada por Van Halen. Quer conhecer a letra dela? Veja a letra de I can't stop lovin' you e cante.

Veja também o vídeo da música tocada.


b - bend
~ - vibrato
/ - slide
h - hammer-on
p - pull-off
pm - palm mute
( )- Harmonico Artificial Com Tapping
v - palhetada para baixo
^ - palhetada para cima

Intr.: ( A4   A   A9   A ) 2x F#m   D   E   ( A4   A   A9   A )



   (A   F#m   D   E )
There's a time and
place for everything
for every one
we can push with all
our might
but nothin's gonna
come
oh no, nothing's
gonna change
and if I asked
you not to try
                         F#m
oh could you let it be
               D
I wanna hold you
 and say
                  Bm
We can'tb throw this
 all way
                     G
tell me you won't go
               E
do you have to hear
 me say

  (A   F#m   D   E )
I can't stop lovin' you
and no matter what I
say or do
You know my heart
is true, oh
                       A
I can't stop lovin' you

  (A   F#m   D   E )
You can change your
  friends
your place in live
you can change 
 your mind
you can change the
things we say
oh no, but I think
you'll find
that when you look
inside your heart
                Bm
oh baby, I'll be there,
yeah
 C
hold on
       Am
I'm holding on
                   F
baby, just come on,
come on, come on
          E
I just wanna hear
you say

 Refrão.:

                   Bm
oh, I'm so twisted
and tied
       E          C#        A
and all I remember
        Bm
was how hard we tried
 E
only to surrender

Solo.: ( C  D )

  (A   F#m   D   E )
And when it's over
I know how
it's gonna be
amd true love will
never die
             ( A4  A  A9  A )
no, not fade away
and I cam't stop 

 (A   F#m   D   E )
lovin' you
no matter what
I say or do
you know my heart
is true, oh
I can't sotp lovin' you
and I know what
I got to do
hey ray, what you
said is true

  ( A   F#m   D   E )
I can't stop lovin' you
oh, I can't stop 
( A4  A  A9  A )
  lovin' you
Solo da Introdução
( )- Harmonico Artificial Com Tapping

E|-------------------------------------------------------------------------------------
B|-10(22)-10b(22)-9(21)-10(22)-10b(22)-10(22)-9(21)-10(22)-10b(22)-10b(22)-10(22)-9(21)
G|-------------------------------------------------------------------------------------
D|-------------------------------------------------------------------------------------
A|-------------------------------------------------------------------------------------
E|-------------------------------------------------------------------------------------


 
 I Can't Stop Lovin' You - Solo
 
 C                  D                               D/A           C/G
                                                              
E|--------------------|-----------------------------|----------------|-----------------
B|--------------------|-----------------------------|-7-7h8-7--------|-----------------
G|-12/11/9-9/11-12/14-|12/11/9---------------6v7^9v-|----------7-7/9~|--------9/12-----
D|--------------------|---------------5v7^9v--------|----------------|-----------------
A|--------------------|--------5v7^9v---------------|----------------|-----------------
E|--------------------|--------I------------------I-|----------------|-----------------
                         I  I - Usar Sweep Picking

Usar o botão de volume
para criar o efeito

D/A               C/G         D/A                            C/G

E|-14-15-15b---------|--------|-10/17-15h17p15p14----------------|---------------------
B|------------15-17~-|--------|-------------------15-------------|---------------------
G|-------------------|--------|----------------------14-12/11----|---------------------
D|-------------------|--------|-------------------------------12-|---------------------
A|-------------------|--------|----------------------------------|-12/10-12p10p9h10p9--
E|-------------------|--------|----------------------------------|---------------------

                                 A9
                                            [         pm           ]
E|-----------|----------------------|--------|----------------------|------------------
B|-----------|----------------------|--------|----------------------|------------------
G|-----------|---11h12-11~----12/14~|--------|-9--7--6--------------|------------------
D|-------12~-|-------------12-------|--------|----------7-----------|------------------
A|-10/12-----|----------------------|--------|-------------7--5--4--|------------------
E|-----------|----------------------|--------|----------------------|--5---------------

Bons Estudos Galera !!!!!

_______________________________________________________
Contribuição: Roberto Della Manna  Aluani([email protected])
Solinho: Renato de Moura Mestre - TOU  ([email protected])
Correção: Fabio Teixeira de Almeida ([email protected])
Correção: Vagner Morais ([email protected])
Correção: Netto Figueroa ([email protected])
Correção: Ricardo Dahmer ([email protected])


Quer fazer uma correção nesta cifra?







    Comentários (0) Postar um Comentário

    Nenhum comentário encontrado. Seja o primeiro!