Cifra da música: Jump - Van Halen

Esse cifra de Van Halen já foi acessado por 1205 pessoas.

Comente

A música Jump fez muito sucesso quando foi gravada por Van Halen. Quer conhecer a letra dela? Veja a letra de Jump e cante.

Veja também o vídeo da música tocada.


	Here's "Jump"  arranged for guitar. 
	I've seen this done in many differnt tunings, 
	but this is how it goes in standard tuning.

e---------------------------------------------------------------------------
B-------15----17----13-----13----15---15---17--------------------
G-------16----17----14-----14----16---16---17--------------------
D-------17----17----15-----15----17---17---17--------------------
A--------------------------------------------------------------------------
E--------------------------------------------------------------------------

e------------------------------------------------|
B----13----13------------8---8---8---------|
G----14----14------------7---7---7---------|	repeat this for awhile during
D----15----15------------9---9---9---------|the verses untill you get to here
A------------------------------------------------|
E------------------------------------------------|


e---------------------------------------------------------------------------
B---------------------------------------------------------------------------
G--------------------------------------------------------------------------		~~~~
 = vibrato
D--------------------------------------------------------------------------
A--------------------------------------------------------------------------
E--------7----5--5----7----5--5-----7-----5~~~~~------------------

	This part is behind the "Cant' you see me standing here, I got my back against t
he wrecking machine..." part.
	Then you play........

	(Palm Muted)
e------------------------------------------------------------
B--------------1-------------------1---------53----------
G--------2--------------------0-----------------------------
D---3---------------3----2---------------------------------
A------------------------------------------------------------
E------------------------------------------------------------

e------------------------------------------------------------
B--------------1-------------------1---------108-------		
G--------2--------------------0-----------------------------		
D---3---------------3----2---------------------------------
A------------------------------------------------------------
E------------------------------------------------------------

then you play the same chords you did in the begining for the chorus.


 
 Jump: Solo Guitarra
                                                   |-------H.A-------|       H.A       
E-----18~-----6-------|-6----------6--------------|-------------------------|---------
B--0-------0------9b~-|---6h9p6------6-------6----|-------------------------|---------
G---------------------|---------9------8p6h8---6~-|--13b-13b-13b-13b~--3----|---------
D---------------------|---------------------------|-----------------------3-|--6b-----
A---------------------|---------------------------|-------------------------|---------
E---------------------|---------------------------|-------------------------|---------

                            +           +          +          +      +     +      +   
E----------------------6h9-13-|9p8p6h9-13p9p8p6h9-13p9p8p6----------------------------
B-----------------------------|----------------------------9-13p6---------------------
G-3---------------------------|-----------------------------------8-13p6--------------
D---6p3-3h6p3-----------------|------------------------------------------8-15p6-------
A-------------6p4-6-4---------|-------------------------------------------------8-15p6
E-----------------------------|-------------------------------------------------------

                
                Palm Mute até o final
                                                                      
E--------------|-------------9-11h13-11-9-11-|----------------------------------------
B--------------|----------11-----------------|----------------------------------------
G-----8b-8p6h8-|-------10--------------------|----------------------------------------
D--------------|----11-----------------------|-----------15h16h18----------15h16h18---
A--6b----------|-13--------------------------|--15h16h18----------15h16h18------------
E--------------|-----------------------------|----------------------------------------


E---------------------|----------------------------------------------------------------
B-----------15h16h18--|----------------------------------------------------------------
G--15h17h18-----------|----------------------------------------------------------------
D---------------------|----------------------------------------------------------------
A---------------------|----------------------------------------------------------------
E---------------------|----------------------------------------------------------------

+ - Tapping
~ - Vibrato
h - Hammer-on
p - Pull-off
H.A - Harmônico Artificial


_______________________________________________________
Contribuição: Eduardo([email protected])
Contribuição(Solo) : Vagner Morais ([email protected]) 
Correção: netto figueroa ([email protected])


Quer fazer uma correção nesta cifra?







    Comentários (0) Postar um Comentário

    Nenhum comentário encontrado. Seja o primeiro!