Cifra da música: Don´t Tell Me (What Love Can Do) - Van Halen

Esse cifra de Van Halen já foi acessado por 591 pessoas.

Comente

A música Don´t Tell Me (What Love Can Do) fez muito sucesso quando foi gravada por Van Halen. Quer conhecer a letra dela? Veja a letra de Don´t Tell Me (What Love Can Do) e cante.

Veja também o vídeo da música tocada.


Transcrevi essa excelente Música do Van Halen, nessa música
Eddie Van Halen usa duas afinações (Graças a sua Guitarra, que têm 
o 'Trans Trem',  que transforma o Bordão de E para D, e vice-versa),
uma Afinação com o bordão um tom abaixo, ou seja em D (RÉ) e a 
outra na Afinação Comum...

Afinação:
Gtr I (D A D G B E) -  
Gtr II(E A D G B E) - 

Acordes
x 0 2 2 0 x  Asus2
x 4 6 6 x x  Cmaj7
x 3 5 5 0 0  C5

Música: 4/4

Riff Inicial (com Bordão em D)

  Gtr I
        PM------------------------------------------------|
||------------------|------------------||-----------------||
||o-----------------|-----------------o||-----------------||
||------------------|------------------||-----------------||
||------------------|------------------||-----------------||
||o-----------------|-----------------o||-----------------||
||--4-4-4-4-4-4-4-4-|-4-0-0-0-0-0-2-2--||-4-0-0-0-0-0-2-2-||
 |-Riff A                   end Riff A-|

Verso 1 e 3   
(Riff A x4)

                       PM-|      PM-|
|-2---x-2-----2-2-|-------------------------|
|-2---x-2-----2-2-|-----------3---------3-3-|
|-----------------|-2---------2---------2-2-|
|-4-----4-----4-4-|-0-[4]-[4]-0-[4]-[4]-0-0-|
|-4-----4---x-4-4-|-------------------------|
|-----------------|-------------------------|
|-Rhy Fig 1

|-----x-2---x-2-2-|------------------|
|-------2---x-2-2-|-3----------------|
|-----------------|-2-x-x------------|
|-4-x---4-----4-4-|-0-x-x-x-2-2------|
|-4-x---4-----4-4-|-------x-0-0-2-2--|
|---------2-------|-------------2-2--|

                                                                          To Coda
|-2---x-2-----2-2-|-------------------|-----x-2-x-x-2-2-|---0-0-0-0-0-0------||
|-2-----2-----2-2-|-3-------3-x-x-3-3-|-2-----2-x-x-2-2-|---0-0-0-0-0-0------||
|-----------------|-2---[4]-2-x-x-2-2-|-2-----2-----2-2-|---2-2-2-2-2-2------||
|-4-----4---x-4-4-|-0-------0-----0-0-|-4-----4-----4-4-|---2-2-2-2-2-2-(0)--||
|-4-x---4-x-x-4-4-|-------------------|-4-----4-----4-4-|--------------------||
|-----------------|-------------------|-----------------|-2------------------||
                                                                    Fim Fig 1-|

 Refrão (Bordão em D)
|-------------|------3-(3)-2h3p2p0---|---------------|
|-3-----------|--------------------3-|---------------|
|-2-----------|----------------------|-2--------2-2--|
|-0-----------|----------------------|-2--------2-2--|
|------0-0----|-0--------------------|-0----0-0-0-0--|
|------0-0----|-0--------------------|---------------|

  T     T     T     T     T     T     T
|-----------------------------------------------|---------------|
|-----------------------------------------------|-3-------------|
|-------------------2(14)-2(14)-------------x-x-|-2-------------|
|-------2(14)-2(14)-------------2(14)-2(14)-x-x-|-0-------------|
|-0(12)-----------------------------------------|------0-(0)----|
|-----------------------------------------------|------0-(0)----|

 |------5-(5)-3h5p3s2---|----------------------|--0--(0)-----------||
|--------------------3-|--------------------x-|------0------------||
|----------------------|-2------(2)-2-----x---|-------------------||
|----------------------|-2------(2)-2---x-----|-------------------||
|-0--------------------|-0----0--0--0---------|-(0)------0-(0)----||
|-0--------------------|----------------------|-------------------||
                       


Após Refrão (Verso 2)
  PM----------|                         PM-----------|
|-----------2-----0-|----------------|-------------2---0-|-(0)----------------|
|-------2-----(2)---|-3--------------|---------2-----2---|-----3--------------|
|-----2---2---------|---2------------|-----2-----2-------|-------2------------|
|---4---------------|------4-0-------|-(4)---4-----------|---------4-0--------|
|-4-----------------|----------0-2-4-|-------------------|-------------0-2-4--|
|-------------------|----------------|-------------------|--------------------|

   PM-----------|
|-------------2---0-|-(0)---------------|
|---------2-----2---|-----3-------------|
|-----2-----2-------|-------2-----------|
|-(4)---4-----------|---------4-0-------|
|-------------------|-------------0-2-4-|
|-------------------|-------------------|

|-------------2---0-|-0----------------||
|---------2-----2---|---3--------------||
|-----2-----2-------|-----2------------||
|-(4)---4-----------|-------4-0--------||
|-------------------|-----------0-2-4--||
|-------------------|------------------||


Fig 1


 Refrão - Segunda Vez
  Gtr II
|-----------------|-------------------------------|--------------|
|-----------------|-------------------------------|--------------|
|-7-------------7-|--7s=11-11s14-14s=19-----19-19-|-21-----------|
|-----------------|-------------------------------|--------------|
|-5-------------5-|--5s==9--9s12-12s=17-----17-17-|-19----0-0----|
|-----------------|-------------------------------|--------------|
|
| Gtr I
|-----------------|------------3-(3)--2h3p2p=0----|--------------|
|-3---------------|-----------------------------3-|--------------|
|-2---------------|-------------------------------|--2-----------|
|-0---------------|-------------------------------|--2-----------|
|-------0-(0)-----|-(0)---------------------------|--0-----------|
|-------0-(0)-----|-(0)---------------------------|--------------|


            T     T     T    ~~~~
|---------------------------------------|
|---------------------------------------|
|-----------2(14)-2(14)-2(9)-2(9)-------|
|---------------------------------------|
|-(0)-----------------------------------|
|---------------------------------------|
|
|                            PM-----|
|---------------------------------------|
|---------------------------------------|
|-----2b4==(2)r---------0-------------x-|
|--2----------------------------------x-|
|----------------------------0----0-0---|
|---------------------------------------|


  H..           E    E   E  E  E  +E   a  E      E  E
|-----------------|------------------------------------|
|-----------------|------------------------------------|
|-7-------------7-|--7s=11-11s14-(14)-14s16s====14-14--|
|-----------------|------------------------------------|
|-5-------------5-|--5s==9--9s12-(12)-12s14s====12-12--|
|-----------------|------------------------------------|
|
|-----------------|------------5--(5)-----3h5p3s=2-----|
|-3---------------|---------------------------------3--|
|-2---------------|------------------------------------|
|-0---------------|------------------------------------|
|-------0-(0)-----|-(0)--------------------------------|
|-------0-(0)-----|-(0)--------------------------------|


                    ~~~~~~~~~         ~~~~~~~
   +H.        a  E  E    +Q    a  E   E  +Q    E  E
|---------------------|-----------------------------||
|---------------------|-----------------------------||
|-(14)-------14s19s18-|-(18)--14s16s=14-(14)--14s16-||
|---------------------|-----------------------------||
|-(12)-------12s17s16-|-(16)--12s14s=12-(12)--12s14-||
|---------------------|-----------------------------||
|
|                   TP    TP      TP
|---------------------|-----------------------------||
|---------------------|-----------------------------||
|---2-----------------|-----------------------------||
|---2-----------------|-----------------------------||
|---0---------------0-|--(0)------7/----------------||
|---------------------|-----------------------------||

 
|---------------|----------------------|
|---------------|----------------------|
|-(16)----------|-(16)-----6-(6)-7s6-4-|
|---------------|----------------------|
|-(14)----------|-(14)---xS4-(4)-5s4-2-|
|---------------|----------------------|
|
|---2-----------|----------------------|
|---2-----------|----------------------|
|---4-----------|----------------------|
|---4-----------|----------------------|
|---2-------2-2-|---2--2-2-2--2--2-2-2-|
|---------------|----------------------|


                             ~~~~~~~~~~~
|---------------------|------------------------|
|---------------------|------------------------|
|---------------------|-----[2]-----(2)--------|
|---------------------|------------------------|
|-2h4p2-4-0-(0)-------|-(0)--------------------|
|---------------------|------------------------|
|
|                               PM|
|---------------------|------------------------|
|---------------------|------------------------|
|-2---------(2)-------|------2-------2----6-6--|
|-2---------(2)-------|------2-------2----6-6--|
|-0---------(0)-0-0-0-|-(0)--0--0-0--0----4-4--|
|---------------------|------------------------|


      ~~~~~~~~
|------------------|-----------------|-0--------|-(0)----------------||
|------------------|-----------------|-0--------|-(0)----------------||
|------------------|-----------------|-5--------|-(5)----------------||
|------------------|-----------------|-5--------|-(5)----------------||
|-4--(4)--(4)----4-|--4---4-4--------|-3--------|-(3)----------------||
|------------------|-----------------|----------|--------------------||
|
|-4-------(4)-4--4-|-(4)------4------|-0--------|-(0)----2-----2-----||
|-5-------(5)-5--5-|-(5)----5-5-4----|-0--------|-(0)----2-2h3-2-----||
|-6-------(6)------|--------------6--|-5--------|-(5)------------4p2-||
|-6-------(6)------|-----------------|-5--------|-(5)----------------||
|-4-------(4)------|-----------------|-3--------|-(3)----------------||
|------------------|-----------------|----------|--------------------||


 Guitar Solo
  Gtr I
|----------------------------------------------------------------------|
|---------------|--------------------------|---------------------------|
|---------------|--------------------------|---------------------------|
|-2-------4s6p4-|-(4)--(4)s2h4p2s1h2p1h2p1-|-(1)--------------------2--|
|---------------|--------------------------|-----2------------------2--|
|---------------|--------------------------|-------4-(4)----(4)-0------|
|---------------|--------------------------|----------------------4----|

|-----------------------------------------------|
|-----------------------------2-----------------|
|-(2)---------------------2---------4p2h4p2h4p2h|
|-(2)-4p2h4p2h4p2h4p2h4p2---4---4p2-------------|
|-----------------------------------------------|
|-----------------------------------------------|

|--------------------------0--h7-|
|--------------------------------|
|-4b6===(4)-9r(9)b11==(9)r-------|
|--------------------------------|
|--------------------------------|
|--------------------------------|

   1/  1/
|-(7)--(7)p5-------------------|
|-----------------17b19==(17)r-|
|------------------------------|
|------------------------------|
|------------------------------|
|---------------x--------------|

                                           1/  1/     1/       1/  1/
|-14--------------14-------------------------------------------------------|
|----17b19==(17)r----17b19==(17)r(17)p14-(14)--17---14---------------------|
|------------------------------------------------------16---(16)-14---14---|
|--------------------------------------------------------------------------|
|--------------------------------------------------------------------------|
|--------------------------------------------------------------------------|


                           ~~~~~~   TP TP
|---------------------------------|-5--7--9--(9)s12-12-|
|---------------------------------|--------------------|
|-(14)--4-2-4-4b6==(4)r-2--------|-2--4--6--(6)s=9--9-|
|--------------------------4-(4)--|--------------------|
|---------------------------------|--------------------|
|---------------------------------|--------------------|

|-(12)-----------------------9-10-12p10h12p10p|
|-------------------12-----x------------------|
|--(9)-(9)s2s16----12---x--------------------|
|----------------14----x----------------------|
|---------------------------------------------|
|---------------------------------------------|

|-9------2-(2)-------------------------2-5b7==|
|---10s3-2-(2)-[3]-4-3h5p3-2-----------2-5b7==|
|----------------------------4b6==(4)r--------|
|---------------------------------------------|
|---------------------------------------------|
|---------------------------------------------|

|-(5)-5--(5)r------------------------|
|-(5)-5---5r--5b7====================|
|-------------4b6==(4)r(4)-2h4p2h4p2h|
|------------------------------------|
|------------------------------------|
|------------------------------------|

|---------------------------------------------|
|-------------------------------------------x-|
|-4p2h4p2h4-2b4==(2)r-----[4]b6-2---------x---|
|---------------------4-2---------4-(4)-x-----|
|---------------------------------------------|
|---------------------------------------------|

|-14-------------17---------17----17----17-|
|----17b21==(17)----17-(17)----17----17----|
|------------------------------------------|
|------------------------------------------|
|------------------------------------------|
|------------------------------------------|

                                                   D.S. al Coda
|----17----17----17-----17-----------|------------------------||
|-17----17----17----17-(17)r17-------|------------------------||
|------------------------------x-14-|-4b6r(4)-2--------------||
|------------------------------------|-----------4-2-4-(4)----||
|------------------------------------|------------------------||
|------------------------------------|------------------------||


Refrão
  
  Gtr II
|---------------|-------------------------------|-------|
|---------------|-------------------------------|-------|
|-7---------7-7-|--7s=11-11s14-14s=19-----19s21-|-21----|
|---------------|-------------------------------|-------|
|-5---------5-5-|--5s==9--9s12-12s=17-----17s19-|-19----|
|---------------|-------------------------------|-------|
|
| Gtr I
|---------------|------------3-(3)--2h3p2p=0----|-------|
|---------------|-----------------------------3-|-------|
|---------------|-------------------------------|-------|
|---------------|-------------------------------|-------|
|-0-------------|-(0)---------------------------|--0----|
|-0-------------|-(0)---------------------------|-------|


|-----------------------|-----------------|------------------------------|
|-----------------------|-----------------|------------------------------|
|-(21)------------------|-7-----------7-7-|--7s=11-11s14-14s=16s====14---|
|-----------------------|-----------------|------------------------------|
|-(19)-------xs=xs==x--|-5-----------5-5-|--5s==9--9s12-12s=14s====12---|
|-----------------------|-----------------|------------------------------|
|
|---0---(0)----(0)------|-----------------|------------5-(5)--3h5p3s=2---|
|--------0-----(0)------|-3---------------|----------------------------3-|
|-----------------------|-2---------------|------------------------------|
|-----------------------|-0---------------|------------------------------|
|---0-------------------|-------0-0-------|-(0)--------------------------|
|-----------------------|-------0-0-------|-(0)--------------------------|

               TP
|-----------|------------------|---------------|
|-----------|------------------|---------------|
|-14--------|----------------x-|-7-------------|
|-----------|----------------x-|---------------|
|-12--------|-12S========[3]---|-5-------------|
|-----------|------------------|---------------|
|
|-----------|------------------|---------------|
|-----------|------------------|-3-------------|
|--2--------|-(2)--------------|-2-------------|
|--2--------|-(2)--------------|-0-------------|
|--0--------|-(0)---xsxs==x---|------0-(0)----|
|-----------|------------------|------0-(0)----|


|-----------------------------|-----------|
|-----------------------------|-----------|
|-7s11-11s14-14s=19-----19s21-|-21--------|
|-----------------------------|-----------|
|-5s=9--9s12-12s=17-----17s19-|-19--------|
|-----------------------------|-----------|
|
|----------5-(5)--3h5p3s=2----|-----------|
|---------------------------3-|-----------|
|-----------------------------|--2--------|
|-----------------------------|--2--------|
|-0---------------------------|--0--------|
|-0---------------------------|-----------|


            T    ~~~~
|---------------------------|-------------||
|---------------------------|-------------||
|-------[2]-2(9)-2(7)-----x-|-7-----------||
|-------------------------x-|-------------||
|--x-----------------------|-5-----------||
|---------------------------|-------------||
|
|---------------------------|-------------||
|---------------------------|-3-----------||
|-(2)------------2----2-2---|-2-----------||
|-(2)------------2----2-2---|-0-----------||
|-(0)------------0----0-0---|------0-0----||
|---------------------------|------0-0----||


 Bridge
   W           +Q     E  E  E  E Q     W                +H..               E
|-----------|------------------------|----------------|------------------------|
|-----------|------------------------|-0--------------|-(0)--------------------|
|-16--------|-(16)-------6s=7--------|-2--------------|-(2)----------------6---|
|-----------|------------------------|-2--------------|-(2)----------------6---|
|-14--------|-(14)---14-4s=5--------|-0--------------|-(0)----------------4---|
|-----------|------------------------|----------------|------------------------|
|
|--2--------|------------------------|-0----(0)-------|----------------------4-|
|--2--------|------------3-(3)-2-----|-0----(0)-----0-|-(0)-----------(0)--4-4-|
|--4--------|----------------------4-|-2----(2)-------|------2-----------------|
|--4--------|------------------------|-2----(2)-------|--------2--(2)----------|
|--2--------|---2--2-----------------|-0----(0)-0-0---|------------------------|
|-----------|------------------------|----------------|------------------------|


  Gtr II
  C#5                                     Cmaj7

  Gtr I
                                                                      PM
|-4--------------|-(4)-------4--4-------|-0--------|-(0)-----2-----2------||
|-4--------------|-(4)-----4h5--5-4-----|-0--------|-(0)-----2-2h3-2------||
|-6--------------|-(6)----------------6-|-5--------|-(5)-------------4-2--||
|-6--------------|-(6)------------------|-5--------|-(5)------------------||
|-4--------------|-(4)------------------|-3--------|-(3)------------------||
|----------------|----------------------|----------|----------------------||

 Guitar Solo
 Gtr II
|---------------------------------------------|-------------------------2---2-2-----|
|--------------------7--(7)-(7)------------9--|--(9)----------------------2h3-2-----|
|-4b6==(4)r---9b11==(9)-(9)-(9)r--11b13==(11)-|-(11)r11b13==(11)-(11)r---------4p2-|
|---------------------------------------------|-------------------------------------|
|---------------------------------------------|-------------------------------------|
|---------------------------------------------|-------------------------------------|

|----------------------------------------------|
|----------------------------------------10----|
|-4b6==(4)r---/11b13==(11)-(11)r-12b14==(12)---|
|----------------------------------------------|
|----------------------------------------------|
|----------------------------------------------|

|------------------2---2-2-----|-------------------------------------------------------|
|-(10)-(10)--------2-2h3-2-----|-------------------------------------------------------|
|-(12)-(12)-(12)r---------4p2-|-4b6==(4)r---/9b11==(9)-(9)r-12b14==(12)r--11b13==(11)-|
|------------------------------|-------------------------------------------------------|
|------------------------------|-------------------------------------------------------|
|------------------------------|-------------------------------------------------------|

|---------------------------------------------------------------|
|------------------------------------------------------17----17-|
|-(11)r-12b14==(12)r--14b16==(14)-(14)r-16b18==(16)-16----16----|
|---------------------------------------------------------------|
|---------------------------------------------------------------|
|---------------------------------------------------------------|

|----------------------17-17-17-17-17-17-17-17-17---------|
|-----17---------------17-17-17-17-17-17-17-17-17-17-(17)-|
|-16-(16)r-16b18==(16)-16-16-16-16-16-16-16-16-16-16r(16)-|
|---------------------------------------------------------|
|---------------------------------------------------------|
|---------------------------------------------------------|

|---------------------------------|
|-x-------------------------------|
|-x-14s2-(2)-4-2-4b6==(4)r-4-2----|
|------------------------------4--|
|---------------------------------|
|---------------------------------|

|---7-7s9-(9)-9-9-9s7-7-7-(7)-7-7-5s|
|---5-5s7-(7)-7-7-7s5-5-5-(5)-5-5-5s|
|-----------------------------------|
|-x---------------------------------|
|-x-7-7s9-(9)-9-9-9s7-7-7-(7)-7-7---|
|-----------------------------------|

|-2-2-2-2-------------2-----------2-2---2-----------|
|-2-2-2-2-----------2---5b7==(5)r-2-2-5---5b7==(5)r=|
|---------4b6==(4)r---------------------------------|
|---------------------------------------------------|
|---------------------------------------------------|
|---------------------------------------------------|

|---------2-----------2-------------2-------------2---------|
|-(5)p2-----5p2-2-5p2---5p2---2-5p2---5p2---2-5p2---5p2---2-|
|-------5-------------------4-------------4-------------5---|
|-----------------------------------------------------------|
|-----------------------------------------------------------|
|-----------------------------------------------------------|
                                  ~
|-----------------------------------x-x--|
|-----------2---------2-------------x-x--|
|-5p4p2h4h5---5p2h4h5---5-2---4-2--------|
|---------------------------4-----4------|
|----------------------------------------|
|----------------------------------------|

|------------------------------------|
|-2----7----7-----9------(9)--10-----|
|-4b6--5b7--9b11-11b13==(11)r-12b14==|
|------------------------------------|
|------------------------------------|
|------------------------------------|

|----------------------------------------|---------------------------------|
|-(10)--12-----14-----(14)----17--14-----|-(14)--17----14----17----19------|
|-(12)r-14b16--16b18==(16)r--(16)-16b18==|=(16)r-19b21-16b18-19b21-21b23===|
|----------------------------------------|---------------------------------|
|----------------------------------------|---------------------------------|
|----------------------------------------|---------------------------------|

|-----------------------------|
|-22-22-22-22-22-22-22-----22-|
|-21-21-21-21-21-21r21b23==21-|
|-----------------------------|
|-----------------------------|
|-----------------------------|

|----------------------------------|------------------------------|
|-22-22---------22--22--22-(22)-22-|-22-22--22--22-(22)-22-22-22--|
|-21-21-21-(21)-21--21--21-(21)-21-|-21-21--21--21-(21)-21-21-21--|
|----------------------------------|------------------------------|
|----------------------------------|------------------------------|
|----------------------------------|------------------------------|

|--------------------------------|---------------------||
|-22--22-(22)-22-----------------|---------------------||
|-21--21-(21)-21r-(21)--2-4-[2]-|-4b5==4r-4-[2]-------||
|--------------------------------|---------------4-----||
|--------------------------------|---------------------||
|--------------------------------|---------------------||

   Outros
||--2---x-2---------|-----------------|
||o-2---x-2---------|-3---x-3-x-x-3-3-|
||------------------|-2---x-2-x-x-2-2-|
||--4-----------4-4-|-0-----0-----0-0-|
||o-4-------x-x-4-4-|-----------------|
||------------------|-----------------|


                                     PM--------|
|-2-----2---------2-|-------------------------||
|-2-----2---------2-|-3-3--------------------o||
|-------------------|-2-2---------------------||
|-4---x-4---[4]-4-4-|-0-0--x-x-x--------------||
|-4---x-4-x-----4-4-|------x-x-x-4-----------o||
|-------------------|------x-x-x---0-0-2-2-2--||

Divirta-se, pois esta música é tudo...

*Transcrito por Paulo Sérgio 
E-mail:  [email protected]





Quer fazer uma correção nesta cifra?







    Comentários (0) Postar um Comentário

    Nenhum comentário encontrado. Seja o primeiro!