Cifra da música: The Blood - The Cure

Esse cifra de The Cure já foi acessado por 749 pessoas.

Comente

A música The Blood fez muito sucesso quando foi gravada por The Cure. Quer conhecer a letra dela? Veja a letra de The Blood e cante.

Veja também o vídeo da música tocada.


Riff 1

E|-2--2-2-2-2-2--3-3-3-3-2--2-2-2-2-2-0-0--0-0-0-0- 
B|-2--2-2-2-2-2--3-3-3-3-2--2-2-2-2-2-0-0--0-0-0-0- 
G|-3--3-3-3-3-3--4-4-4-4-3--3-3-3-3-3-1-1--1-1-1-1- 
D|-4--4-4-4-4-4--5-5-5-5-4--4-4-4-4-4-2-2--2-2-2-2- 
A|-4--4-4-4-4-4--5-5-5-5-4--4-4-4-4-4-2-2--2-2-2-2- 
E|-2--2-2-2-2-2--3-3-3-3-2--2-2-2-2-2-0-0--0-0-0-0- 

Riff 2 
'I am paralyzed...'

E|-3--3-3-3-3-3--3-3-3-3-5--5-5-5-5-5-7-7-7-X-X- 
B|-3--3-3-3-3-3--3-3-3-3-5--5-5-5-5-5-7-7-7-X-X- 
G|-4--4-4-4-4-4--4-4-4-4-6--6-6-6-6-6-7-7-7-X-X- 
D|-5--5-5-5-5-5--5-5-5-5-7--7-7-7-7-7-9-9-9-X-X- 
A|-5--5-5-5-5-5--5-5-5-5-7--7-7-7-7-7-9-9-9-X-X- 
E|-3--3-3-3-3-3--3-3-3-3-5--5-5-5-5-5-7-7-7-X-X- 

E|-2--2-2-2-2-2--0-0-0-0-2--2-2-2-2-2--0-0-0-0- 
B|-2--2-2-2-2-2--0-0-0-0-2--2-2-2-2-2--0-0-0-0- 
G|-3--3-3-3-3-3--1-1-1-1-3--3-3-3-3-3--1-1-1-1- 
D|-4--4-4-4-4-4--2-2-2-2-4--4-4-4-4-4--2-2-2-2- 
A|-4--4-4-4-4-4--2-2-2-2-4--4-4-4-4-4--2-2-2-2- 
E|-2--2-2-2-2-2--0-0-0-0-2--2-2-2-2-2--0-0-0-0- 

Riff 3 
'When the sunset's glow drifts away from you.....'

E|--------------------------------------------- 
B|-3--3-3-3-3-3--5-5-5-5-3--3-3-3-3-3--5-5-5-5- 
G|-4--4-4-4-4-4--6-6-6-6-4--4-4-4-4-4--6-6-6-6- 
D|-4--4-4-4-4-4--6-6-6-6-4--4-4-4-4-4--6-6-6-6- 
A|-2--2-2-2-2-2--4-4-4-4-2--2-2-2-2-2--4-4-4-4- 
E|--------------------------------------------- 

E|-2--2-2-2-2-2--3-3-3-3-2--2-2-2-2-2--3-3-3-3- 
B|-2--2-2-2-2-2--3-3-3-3-2--2-2-2-2-2--3-3-3-3- 
G|-3--3-3-3-3-3--4-4-4-4-3--3-3-3-3-3--4-4-4-4- 
D|-4--4-4-4-4-4--5-5-5-5-4--4-4-4-4-4--5-5-5-5- 
A|-4--4-4-4-4-4--5-5-5-5-4--4-4-4-4-4--5-5-5-5- 
E|-2--2-2-2-2-2--3-3-3-3-2--2-2-2-2-2--3-3-3-3- 

Lead Guitar (Solo)
E|------------------------------------------- 
B|------------------------------------------- 
G|------------------------------------------- 
D|-4---5-4---4-5-4h5p4---4-------4----------- 
A|---------7-----------7-----5-7---7-4h5p4--- 
E|------------------------------------------- 

E|-------------------------------------------- 
B|-------------------------------------------- 
G|-------------------------------------------- 
D|-----------------------4h5p4---4-5-7-5--4--- 
A|-2-0---0---------------------7-------------- 
E|-----3---3-2h3p2-0-2------------------------ 

E|------------------------- 
B|------------------------- 
G|---------------6-7-4-6--- 
D|-4h5p4---4-5-7----------- 
A|-------7----------------- 
E|------------------------- 

E|--------------------7-9-10-9-7-9-10-9-7-9-7----7- 
B|-------------7-8-10-------------------------10--- 
G|-6h7p6---6-7------------------------------------- 
D|-------9----------------------------------------- 
A|------------------------------------------------- 
E|------------------------------------------------- 

E|-------------7------------ 
B|-10-8-7-8-10---10-8-7----- 
G|-------------------------- 
D|-------------------------- 
A|-------------------------- 
E|-------------------------- 




F# G F# E (repeat)

Tell me who doesn't love
What can never come back
You can never forget how it used to feel
The illusion is deep
Its as deep as the night
I can tell by your tears you remember it all

G G A A F# G F# G

I am paralysed by the blood of Christ
Though it clouds my eyes
I can never stop

How it feels to be dry
Walking bare in the sun
Every mirage I see is a mirage of you
As I cool in the twilight
Taste the salt on my skin
I recall all the tears
All the broken words

I am paralysed by the blood of Christ
Though it clouds my eyes
I can never stop

B C B C
F# G F# G

When the sunsets glow drifts away from you
You'll no longer know
If any of this was really true at all



Quer fazer uma correção nesta cifra?







    Comentários (0) Postar um Comentário

    Nenhum comentário encontrado. Seja o primeiro!