Cifra da música: Fascination Street - The Cure

Esse cifra de The Cure já foi acessado por 1022 pessoas.

Comente

A música Fascination Street fez muito sucesso quando foi gravada por The Cure. Quer conhecer a letra dela? Veja a letra de Fascination Street e cante.

Veja também o vídeo da música tocada.


This is the riff that opens up the song and appears near the end of the
song:

E|------------------------------------
B|-----4-------4------4------1---3----
G|-2-3-----2-3----2-3----2-3--------3-
D|------------------------------------
A|------------------------------------
E|------------------------------------


After this riff is played three times, the keyboard riff that appears is:

E|-------3--------3----------------------3--------3--6--6-6-6--4--3--
B|-4--6-----4--6-----4--1--1--1--4-4--6-----4--6---------------------
G|-------------------------------------------------------------------
D|-------------------------------------------------------------------
A|-------------------------------------------------------------------
E|-------------------------------------------------------------------


This is played two times, then the drums come in and then a weird effect
appears, I think it is harmonics played like:

E|-----------------------------------------
B|--7-7--7--7-7--7-7---5--5-5--5--5--5-5-5- 


Quer fazer uma correção nesta cifra?







    Comentários (0) Postar um Comentário

    Nenhum comentário encontrado. Seja o primeiro!