Cifra da música: Just Like Heaven - The Cure

Esse cifra de The Cure já foi acessado por 1005 pessoas.

Comente

A música Just Like Heaven fez muito sucesso quando foi gravada por The Cure. Quer conhecer a letra dela? Veja a letra de Just Like Heaven e cante.

Veja também o vídeo da música tocada.


Intro: A intro é esse riff acompanhado por A E Bm D

e|---------------------------------------------------------------------------------------------------------------------|
B|-14-14-12-12-10-9-9-7-7-5-----------------------14-14-12-12-10-9-9-7-7-5---------------------------------|
G|--------------------------------7-7-6-7-4-4-2-4-6---------------------------------7-7-6-7-4-4-2-4-6-----------|
D|---------------------------------------------------------------------------------------------------------------------|
A|---------------------------------------------------------------------------------------------------------------------|
E|---------------------------------------------------------------------------------------------------------------------|

e|-----------------------------------------------------------------------------------------------------------------------|
B|---------------7-7-9-9-10-10-12-12-14-14-15-15-17-17-15-15-15---------------------------------------------|
G|-6-6-7-7-9-9--------------------------------------------------------------------------------------------------------|
D|-----------------------------------------------------------------------------------------------------------------------|
A|-----------------------------------------------------------------------------------------------------------------------|
E|-----------------------------------------------------------------------------------------------------------------------|

e|------------------------------------------------------|
B|-14-14-12-12-10-9-9-7-7-5-----------------------|
G|--------------------------------7-7-6-7-4-4-2-4-6--|
D|------------------------------------------------------|
A|------------------------------------------------------|
E|------------------------------------------------------|

(A E Bm D)
'Show me, show me, show me
How you do that trick
The one that makes me scream' she said
'The one that makes me laugh' she said
And threw her arms around my neck
'Show me how you do it and I promise you
I promise that I'll run away with you
I'll run away with you'

Intro

(A E Bm D)
Spinning on that dizzy edge
I kissed her face and kissed her head
And dreamed of all the different ways I had
To make her glow
'Why are you so far away?' she said
'Why won't you ever know that I'm
In love with you?
That I'm in love with you?'

F#m   G
You: Soft and only
F#m   G
You: Lost and lonely
F#m   G
You: Strange as angels
D
Dancing in the deepest oceans
Twisting in the water
                                    A E Bm D [riff 2]
You're just like a dream...
You're just like a dream...

                                        'Riff 2'
e |-12-12-12-12----------------------------------------------------------------------------------|
B|-----------------14-----12-12-----12-14-15-14-15-------------------------------------------|
G|---------------------14---------14--------------------------------------------------------------|
D|--------------------------------------------------------------------------------------------------|
A|--------------------------------------------------------------------------------------------------|
E|--------------------------------------------------------------------------------------------------|

e |-12-12-12-12----------------------------------------12--------------------------------------|
B|-----------------14-----12-12-----12-14-15-14-15------------------------------------------|
G|---------------------14---------14------------------------14----------------------------------|
D|-------------------------------------------------------------------------------------------------|
A|-------------------------------------------------------------------------------------------------|
E|-------------------------------------------------------------------------------------------------|
                                                                                           [riff intro]
e|--17-17-17-17-19-20-17-19-17-19-17-19-|-10-9-10-9----------10-9-10-9------------------|
B|-----------------------------------------------|-------------10-10---------------10-10-----------|
G|-----------------------------------------------|----------------------------------------------------|
D|-----------------------------------------------|----------------------------------------------------|
A|-----------------------------------------------|----------------------------------------------------|
E|-----------------------------------------------|--------------------- -------------------------------|

(A E Bm D)
Daylight licked me into shape
I must have been asleep for days
And moving lips to breathe her name
I opened up my eyes
And found myself alone
Alone
Alone above a raging sea
[Solinho da intro]
That stole the only girl I loved
And drowned her deep inside of me

F#m  G
You: Soft and only
F#m   G
You: Lost and lonely
F#m   G                     A
You: Just like heaven
	




Quer fazer uma correção nesta cifra?







    Comentários (0) Postar um Comentário

    Nenhum comentário encontrado. Seja o primeiro!