Cifra da música: Seguindo Estrelas - Paralamas do Sucesso

Esse cifra de Paralamas do Sucesso já foi acessado por 872 pessoas.

3.00 / 5 - 1
Comente

Veja também o vídeo da música tocada.


Intr.:(Dedilhada) 2x

e |--2---------|-------2----|---------2--|--------------2--|
B |-------5----|-----5------|-------5----|------------5----|
G |-----4------|---4--------|-----4------|----------4------|
D |--2---------|-0----------|------------|-----------------|
A |------------|------------|--4---------|--0-h2p3---------|
E |------------|------------|------------|-----------------|
(Essa introdução é dedilhada, por isso na hora de executá-la, monte
esse riff como se fosse um acorde, pq fica mais facil de fazê-la; o
riff montado fica assim:)

e |--2---------|--2---------|--2---------|--------------2--|
B |--2----5----|--2----5----|--2-----5---|------------5----|
G |--2--4------|--2--4------|--2---4-----|----------4------|
D |--2---------|-0----------|------------|-----------------|
A |------------|------------|--4---------|--0-h2p3---------|
E |------------|------------|------------|-----------------|
(Quando tiver esses 2, um embaixo do outro, faça como se fosse uma
pequena pestana, assim a intr. fica montada como se fosse um acorde.
Vc deverá escutar a musica para tirar o dedilhado, é bem fácil!
Lembrem-se que essa introdução é feita 2 x, junto com o solo abaixo:) 

Solo Inicial(Feito junto com a intr.)

e |--4-5-7-5-4---4------------------------7-5-4-5-4-------------|
B |------------7---5-5-7---------5-7-5--------------7-5---------|
G |----------------------2--4-5-------------------------2--4-5--|
D |-------------------------------------------------------------|
A |-------------------------------------------------------------|
E |-------------------------------------------------------------|
(Esse solo, é feito junto com a intr., por isso, escute a música
e marque o tempo do solo e o da introdução, os dois são feitos
juntos, fica perfeito! Logo após,a musica começa com as notas abaixo.)


E
Sigo palavras e busco estrelas
O que é que o mundo fez
Pra você rir assim
C#m
Pra não tocá-la, melhor nem vê-la
Como é que você pôde se perder de mim
A
Faz tanto frio, faz tanto tempo
Que no meu mundo algo se perdeu
F#m
Te mando beijos
Em outdoors pela avenida
E você sempre tão distraída
G#              A
Passa e não vê, não vê

(Faça um desses Riffs antes de começar a música de novo, depois do
acorde 'A'. Esse riff não é o original, mas uma boa opção, criado
por Deivid Alves [o cara manja muito...], para não ficar vago
o tempo da música, escolha o que achar melhor, ou faça um em cada
refrão!) 


e |--------------------|		e |------------------|
B |--------------------|		B |------------------|
G |------7/9b----------|		G |------7/9/10------|
D |------7/9-----------|		D |------7/9---------|
A |--------------------|		A |------------------|
E |--------------------|		E |------------------|
(Esse 'b' indica um Bend, na		(Esse funciona como se fosse
casa nove, logo após fazê-lo		um Slide, fica muito bom
comece a música novamente no		também.)
Acorde 'E'.)


E
Fico acordado noites inteiras
Os dias parecem não ter mais fim
C#m
E a esfinge da espera
Olhos de pedra sem pena de mim
A
Faz tanto frio, faz tanto tempo
Que no meu mundo algo se perdeu
F#m
Te mando beijos
Em outdoors pela avenida
Você sempre tão distraída
G#              A		
Passa e não vê, e não vê	
(Faça os acordes 'G#' e 'A', como bicordes, para ficar mais idêntico.
Fica como os indicados abaixo):

	    G#					   A
e |--------------------|		e |------------------|
B |--------------------|		B |------------------|
G |--------------------|		G |------------------|
D |-----------6--------|		D |-----------7------|
A |-----------6--------|		A |-----------7------|
E |-----4--------------|		E |-----5------------|


(Nessa parte, junto com o refrão, FAÇA O DEDILHADO DA INTRODUÇÃO, junto
com o solo abaixo:)

Solinho de Fundo

e |--4-5-7-5-4---4----------------------|
B |------------7---5-5--7--------5-7-5--|
G |-----------------------2--4-5--------|
D |-------------------------------------|
A |-------------------------------------|
E |-------------------------------------|


E         D           C#m      C
Já não consigo não pensar em você
E         D           C#m      C
Já não consigo não pensar em você




Quer fazer uma correção nesta cifra?







    Comentários (0) Postar um Comentário

    Nenhum comentário encontrado. Seja o primeiro!