Cifra da música: La bella luna - Paralamas do Sucesso

Esse cifra de Paralamas do Sucesso já foi acessado por 1594 pessoas.

Comente

Veja também o vídeo da música tocada.


Intro:

E|------7---------------------------------------------------
B|--/9-----9-----9-----------10----------7----------9-------
G|------------9-----9--9/11------11---8-----8--8/9-----9----
D|----------------------------------------------------------
A|----------------------------------------------------------
E|----------------------------------------------------------

E|----------------7--5--------------------------------------
B|------5-----/4--------------------------------------------
G|---4-----4------------------------------------------------
D|----------------------------------------------------------
A|----------------------------------------------------------
E|----------------------------------------------------------

E|--7--4--/4------------------------------------------------
B|-----------5--7--9--7-------------------------------------
G|----------------------------------------------------------  4x
D|----------------------------------------------------------
A|----------------------------------------------------------
E|----------------------------------------------------------

E|----------------------------------------------------------
B|--9--7--5--5--7--7--7--7----------------------------------
G|----------------------------------------------------------  2x
D|----------------------------------------------------------
A|----------------------------------------------------------
E|----------------------------------------------------------

E|----------------------------------------------------------
B|--9--7--5-----5--7--7--7--7--9--7--5--5--7--7--7--7-------
G|-----------7----------------------------------------------
D|----------------------------------------------------------
A|----------------------------------------------------------
E|----------------------------------------------------------

     E
Por mais que eu pense
        B7
Que eu sinta que eu fale
     E                   B7
Tem sempre alguma coisa por dizer
     E                   B7                 E
Por mais que o mundo dê voltas em torno do Sol
                   B7
Vem a Lua me enlouquecer
   E            B7
A noite passada
              E    B7
Você veio me ver
   E            B7
A noite passada
                 E   B7
Eu sonhei com você
   E               B7
Ó Lua de cosmo no céu estampada
    E                  B7
Permita que eu possa adormecer
      E              B7
Quem sabe de novo nessa madrugada
E               B7
 Ela resolva aparecer


____________________________________________________


Quer fazer uma correção nesta cifra?







    Comentários (0) Postar um Comentário

    Nenhum comentário encontrado. Seja o primeiro!