Cifra da música: Caleidoscópio - Paralamas do Sucesso

Esse cifra de Paralamas do Sucesso já foi acessado por 2076 pessoas.

Comente

Veja também o vídeo da música tocada.


Versão 1
-======-

Tom - G


G                        C7/9
Não é preciso apagar a luz
                         G
Eu fecho os olhos e tudo vem
                         C7/9
Num caleidoscópio sem lógica
                            C7/9
Eu quase posso ouvir a tua voz
                            G
Eu sinto a tua  mão a me guiar
                            C7/9
Pela noite a caminho de casa
            Am
Quem vai pagar as contas desse amor pagão
    Am7                             Bm7
Te dar a mão, me trazer à tona prá respirar
         D7
Quem vai chamar meu nome ou te escutar
G                         C7/9
Me pedindo para apagar a luz
                          G
Amanheceu, é hora de dormir
                          C7/9
Nesse nosso relógio sem órbita
G                         C7/9
Se tudo tem que terminar assim
                          G
Que pelo menos seja até o fim
                                   C7/9
Pra gente não ter nunca mais que terminar 


__________________________________________________________


Versão acústico Mtv.

[Intro:] D C G C D C G

D                 C       G
Não é preciso apagar a luz
                     C
Eu fecho os olhos e tudo vem
D            C         G
Num caleidoscópio sem lógica
D                     C       G
Eu quase posso ouvir a tua voz
                       C
Eu sinto a tua mão a me guiar
D               C       G
Pela noite a caminho de casa

      Em
Quem vai pagar as contas desse amor pagão
                     F#m7
Te dar a mão, me trazer à tona prá respirar
      A7
Quem vai chamar meu nome ou te escutar

Me pedindo para apagar a luz
Amanheceu, é hora de dormir
Nesse nosso relógio sem órbita
Se tudo tem que terminar assim
Que pelo menos seja até o fim
Pra gente não ter nunca mais que terminar

________________________________________________________
 





Versão 3
-======-

(Herbert Vianna / Paralamas do Sucesso)

Transcrito por Rodrigo Pacheco : [email protected]
Algum erro, por favor mandem as correções para o e-mail.

Intro:(G C)
e|------------------------------------------------------------------------------------/-
B|------------------------------------------------------------------------------------/-
G|--------------------------------------------------------10/12--10b12--10b12--10~~--/-
D|-----10----8---------10-8----10----10-8-----------10-8------------------------------/-
A|--10----10---10~~--------10----10-------10--8-10-----------------------------------/-
E|------------------------------------------------------------------------------------/-
                                                   
-/------------------------------------------------------------------------------------------|
-/----------------------------------------------------------------------------8-------11p8~-|
-/----10----10~-----10----10----10-------------H-------------------------------10b12-------|
-/-/12----12------12----12----12----12-X---10~---10------10-8----------8-10-8---------------| 
-/-----------------------------------------10~--------10-------10-8-10----------------------|
-/------------------------------------------------------------------------------------------|

Verso:
    G          C         G          C           G          C      G          C
e|------------------------------------------------------------------------------------|
B|--1210/12---5---5-----1210/12---5-----------1210/12---5------1210/12---5--8-----|
G|--1210/12---5---5-----1210/12---5---5-3-5---1210/12---5--5---1210/12---5--5-----|
D|--1210/12---5---5-----1210/12---5---5-3-5---1210/12---5--5---1210/12---5--5-----|
A|------------------------------------------------------------------------------------|
E|------------------------------------------------------------------------------------|
 Não é prciso apagar a luz...

Refrão:
    Am7                 Bm7      D7
e|--5-5-5--7-7-5--5-5---7-7-7----5-5--5---|
B|--5-5-5--7-7-5--5-5---7-7-7----7-7--7---|
G|--5-5-5--7-7-5--5-5---7-7-7----5-5--5---|
D|--5-5-5--7-7-5--5-5---7-7-7----7-7--7---|
A|-------------------------------5-5--5---|
E|----------------------------------------|
Quem vai pagar as contas...

Solo:
e|-----------------------------------------------------------------------
B|-----------------------------------------------------------------------
G|--------------------------------------------10/12--10--10h12~~--12~~---
D|--8--------------------10-8-----------10-8-----------------------------
A|----10-8-10-8h10~---10-------10--8-10----------------------------------
E|-----------------------------------------------------------------------

-/--------------------------------------------------------------------------------------
-/----------------------------------------------------------------11p10p8----8~~--8~~--
-/-------10----10~-----10----10----10------------------------------------10------------
-/---/12----12------12----12----12----12-X---10~------10--8-----------------------------
-/-------------------------------------------10~---10-10----10~~------------------------
-/--------------------------------------------------------------------------------------

-/------------------------------------------------------------10--------------
-/---------13b15--13b15r13--11----11~---10b12r10p8---8~--------11-8~-8~~----
-/---12-----------------------12-------------------9------/9-----------------
-/---12----------------------------------------------------------------------
-/----------------------------------------------------------------------------
-/----------------------------------------------------------------------------

-/------15p13----13h15---------------------------------------------------------------
-/------------15-----------------12h13p12-----12----15p12--------------15p12---------
-/--/12-----------------7-6-5/-------------12-----12-------14p12-14p12-------12~~----
-/----------------------7-6-5/-------------------------------------------------------
-/-----------------------------------------------------------------------------------
-/-----------------------------------------------------------------------------------

-/--------------------------------------------------------------------------14b15--14b15--|
-/-------------------------------15--------------------------------------------------------|
-/---14b16r14p12--14b16~~-----12----14b16~---14b16r14--12--11--12--14----------------------|
-/---------------------------------------------------------------------12------------------|
-/-----------------------------------------------------------------------------------------|
-/-----------------------------------------------------------------------------------------|
    Quem vai pagar as contas desse amor pagão...

Final:(Parte do sopro)
e|--------------------------------------|
B|--------------------------------------|
G|--12---7--9--12------12--7--9--5----|
D|--12---7--9--12------12--7--9--5----|
A|--------------------------------------|
E|--------------------------------------|

Solo Final: Pentatônica em G ?





Quer fazer uma correção nesta cifra?







    Comentários (0) Postar um Comentário

    Nenhum comentário encontrado. Seja o primeiro!