Cifra da música: Alagados - Paralamas do Sucesso

Esse cifra de Paralamas do Sucesso já foi acessado por 2631 pessoas.

1.50 / 5 - 2
Comente

Veja também o vídeo da música tocada.


TOM: A
INTRODUÇÃO: (A E D)

|-|-14--------------------17------15---14-----------------|-17----------
|-|------15----------15---------------------15-------14---|------17-----
|-|-----------14----------------------------------14------|-------------
|-|-------------------------------------------------------|-------------
|-|-------------------------------------------------------|-------------
|-|-------------------------------------------------------|-------------
1 2                                                       3           

          B1½                       B1½                             
-----17--------15--------------15---------|-14--------------------------
14------------------15--------------------|------15-----------15--------
----------16--------------16--------14----|-----------14----------------
------------------------------------------|-----------------------------
------------------------------------------|-----------------------------
------------------------------------------|-----------------------------
                                          4                         

                           B2                         B1              
17------15---14-----------------|-17-------------17--------15-----------
------------------15-------14---|------17---14------------------15------
------------------------14------|---------------------16----------------
--------------------------------|---------------------------------------
--------------------------------|---------------------------------------
--------------------------------|---------------------------------------
                                5                                     

          B2                                                           
-----15--------|-14--------------------17------15---14------------------
---------------|------15----------15----------------------15------14----
16--------14---|----------14-----------------------------------14-------
---------------|--------------------------------------------------------
---------------|--------------------------------------------------------
---------------|--------------------------------------------------------
               6                                                       

                        B1                          B2              
|-17---------------17---------15--------------15---------|-14-----------
|-------17----14-------------------15--------------------|------15------
|-----------------------16---------------16---------14---|--------------
|--------------------------------------------------------|--------------
|--------------------------------------------------------|--------------
|--------------------------------------------------------|--------------
7                                                        8          

                                     
------------17------15--14----------------------------------------------
-------15-------------------15------------------------------------------
14--------------------------------14------------------------------------
------------------------------------------------------------------------
------------------------------------------------------------------------
------------------------------------------------------------------------
                                     



       A  E           D
 Todo dia o sol da manhã
            A
 Vem e lhes desafia
 E                 D
 Traz do sonho pro mundo
         A
 Quem já não o queria
 E             D          A
 Palafitas, trapiches, farrapos
           C#m       E  D
 Filhos da mesma agonia
       A    E               D
 E a cidade que tem braços abertos
         A
 Num cartão postal
 E               D           A
 Com os punhos fechados na vida real
 E         D      A
 Lhe nega oportunidades
               C#m     E   D
 Mostra a face dura do mal

 A    C#m        E       D          A
 Alagados, Trenchtown, Favela da Maré
                 C#m    E
 A esperança não vem do mar
           D         A
 Nem das antenas de TV
        C#m          E
 A arte de viver da fé
           D          A
 Só não se sabe fé em quê
        C#m          E
 A arte de viver da fé
           D          A
 Só não se sabe fé em quê

INTRODUÇÃO

       A  E           D
 Todo dia o sol da manhã
            A
 Vem e lhes desafia
 E                 D
 Traz do sonho pro mundo
         A
 Quem já não o queria
 E             D          A
 Palafitas, trapiches, farrapos
           C#m       E  D
 Filhos da mesma agonia
       A    E               D
 E a cidade que tem braços abertos
         A
 Num cartão postal
 E               D           A
 Com os punhos fechados na vida real
 E         D      A
 Lhe nega oportunidades
               C#m     E   D
 Mostra a face dura do mal

 A               E                  A
 Alagados, Trenchtown, Favela da Maré
                        E
 A esperança não vem do mar
                     A
 Nem das antenas de TV
                     E
 A arte de viver da fé
                      A
 Só não se sabe fé em quê
                     E
 A arte de viver da fé
                      A
 Só não se sabe fé em quê

INTRODUÇÃO (Solo sobre harmonia da introdução)

 
 Alagados, Trenchtown, Favela da Maré
 A esperança não vem do mar
 Nem das antenas de TV
 A arte de viver da fé
 Só não se sabe fé em quê
 A arte de viver da fé
 Só não se sabe fé em quê

                 E                  A
 Alagados, Trenchtown, Favela da Maré
                        E
 A esperança não vem do mar
                     A
 Nem das antenas de TV
                     E
 A arte de viver da fé
                      A
 Só não se sabe fé em quê
                     E
 A arte de viver da fé

INTRODUÇÃO

 A            E       D          A
 Alagados, Trenchtown, Favela da Maré
                        E
 A esperança não vem do mar
           D         A
 Nem das antenas de TV
        C#m          E
 A arte de viver da fé
           D          A
 Só não se sabe fé em quê
        C#m          E D
 A arte de viver da fé
   (A C#m E D)
 A arte de viver da fé
 Só não se sabe fé em quê
 A arte de viver da fé
 Só não se sabe fé em quê
 A arte de viver da fé
 Só não se sabe fé em quê


___________________________________________________________________



Quer fazer uma correção nesta cifra?







    Comentários (0) Postar um Comentário

    Nenhum comentário encontrado. Seja o primeiro!