Cifra da música: Romance Ideal - Paralamas do Sucesso

Esse cifra de Paralamas do Sucesso já foi acessado por 1258 pessoas.

5.00 / 5 - 1
Comente

Veja também o vídeo da música tocada.


Versão 1
-======-

(Herbert Vianna/Martin Cardoso / Paralamas do Sucesso)


Intro: C#m/A  A7+ 
e|-------4-----0-----4-----0-----4---5------4----0----|
B|-------5-----5-----5-----5-----5------5---5----5----|
G|-------6-----6-----6-----6-----6----------6----6----|
D|-------6-----6-----6-----6-----6----------6----6----|
A|-------0-----0-----0-----0-----0----------0----0----|
E|-------------5-----------5---------------------5----|

Bridge: ( E ; G#m ; C#m/A ; A7+ )

Verso1:
(E G#m F#m C#m/A A7+)
Ela é só uma menina
E eu pagando pelos erros
que eu nem sei se cometi
Ela é só uma menina
E eu deixanado que ela faça
o que bem quiser de mim

Refrão:
F#m         C#m/A A7+     C#m7    G#m7    F#m7    A7+
 Se eu queria enlouquecer essa é a minha chance
Am6             E    E7/4    E7
É tudo que eu quis
F#m         C#m/A A7+     C#m7    G#m7    F#m7    A7+  Am6
 Se eu queria enlouquecer esse é o romance ideal       

Bridge: ( E ; G#m ; C#m/A ; A7+ )

Verso2:
 (E G#m F#m C#m/A A7+)
Não pedi que ela ficasse
Ela sabe que na volta
Ainda vou estar aqui
Ela é só uma menina
E eu pagando pelos erros
Que eu nem sei se cometi

Refrão:
F#m         C#m/A A7+     C#m7    G#m7    F#m7    A7+
 Se eu queria enlouquecer essa é a minha chance
Am6             E    E7/4    E7
É tudo que eu quis
F#m         C#m/A A7+     C#m7    G#m7    F#m7    A7+  Am6
 Se eu queria enlouquecer esse é o romance ideal       

Bridge: ( E ; G#m ; C#m/A ; A7+ )

Solo:
  |P.M........|  
e|--------------------------------------------------------------------------------------------/-
B|-----------------5--4--5--7------------5b7(5)~~------9h10p9----------------------------12~~-/-
G|--------------4-------------4~--4p3p2-----------9h11---------11-11b13---9-11-11b13-11-9-----/- 
D|-----2--4--6--------------------------------------------------------------------------------/-
A|-2h4----------------------------------------------------------------------------------------/-
E|--------------------------------------------------------------------------------------------/-

-------------------12--------------------------------------------------------------------/-
-----12b14(12)b14------12b14(12)~~---9--12-----------------------------------------------/-
---9---------------------------------------11b13--11--9-9~~--9-11p9-x-9~~------9-9-9~~--/-
---------------------------------------------------------------------------9/11----------/-
-----------------------------------------------------------------------------------------/-
-----------------------------------------------------------------------------------------/-

--------12-12-12~~--17-16h17p16--------17-16h17p16--------------12-14-14b16(14)b16(14)b16~~-|
--11/12--------------------------17-----------------17-----12/14-----------------------------|
------------------------------------16~----------------16~-----------------------------------|
---------------------------------------------------------------------------------------------|
---------------------------------------------------------------------------------------------|
---------------------------------------------------------------------------------------------|

Refrão:
F#m         C#m/A A7+     C#m7    G#m7    F#m7    C#m/A A7+
 Se eu queria enlouquecer essa é a minha chance
Am6             E    E7/4    E7
É tudo que eu quis
F#m         C#m/A A7+     C#m7    G#m7    F#m7    C#m/A A7+  Am6
 Se eu queria enlouquecer esse é o romance ideal       

Bridge: ( E ; G#m ; C#m/A ; A7+ )

Fim

___________






Versão 2
-======-

versão ao vivo 'Vamo Batê Lata CD1'


TOM: E
INTRO: (E E7 A7+) (4x)

E           G#m
 Ela é só uma menina
F#m           A7+
 E eu pagando pelos erros
E                  G#m    F#m A7+
 Que eu nem sei se cometi
E           G#m
 Ela é só uma menina
F#m                 A7+
 E eu deixanado que ela faça
E             G#m        F#m A7+
 O que bem quiser de mim

F#m                A7+
 Se eu queria enlouquecer
C#m       G#m    F#m   A7+
 Essa é a minha chance
   Am7         E    D E7
 É tudo que eu quis
F#m                A7+
 Se eu queria enlouquecer
C#m     G#m F#m      A7+ Am7
 Esse é o romance ideal

INTRO 2x

E               G#m
Eu não pedi que ela ficasse
F#m        A7+
 Ela sabe que na volta
E            G#m    F#m A7+
 Ainda vou estar aqui    ô ôoo
E           G#m
 Ela é só uma menina
F#m           A7+
 E eu pagando pelos erros
E                    G#m  F#m A7+
 Que eu nem sei se cometi

F#m                A7+
 Se eu queria enlouquecer
C#m       G#m    F#m   A7+
 Essa é a minha chance
   Am7         E    D E7
 É tudo que eu quis
F#m                A7+
 Se eu queria enlouquecer
C#m     G#m F#m      A7+ Am7
 Esse é o romance ideal

INTRO 2x

Base do solo: 4 vezes ->   (E G#m F#m A7+)

SOLO (por Gustavo Gaspar Campanhã)
                                    x2               x2
E|-----------------------------|------------|----------------------------|
B|-----------------------------|---------- -|-----9h10p9h10--------------|
G|---------------9-8-9/11------|----9b11b9--|-9h11---------11b13---------|
D|-------------9----------9-9--|-987--------|----------------------------|
A|------7-9/11-----------------|------------|----------------------------|
E|----7------------------------|------------|----------------------------|


E|----------------------12------------------|-11-12-14b16-14b16-14-12-11-|
B|-------9h10p9h10-------12----7-7h9-7------|----------------------------|
G|---9h11---------11/13---13-9---------8h9--|----------------------------|
D|------------------------------------------|----------------------------|
A|------------------------------------------|----------------------------|
E|------------------------------------------|----------------------------|

              ~~~~~~~~~~~~   ~~~~~~~~~~~~~~ 
E|-12-14-------s12-12-12-12------------------|-17-16h17-----17-16h17-----|
B|-------12-12-------------------------------|----------17----------17---|
G|----------------------------s9--9-9-9-9-9--|-----------16-----------16-|
D|-------------------------------------------|---------------------------|
A|-------------------------------------------|---------------------------|
E|-------------------------------------------|---------------------------|


E|----21-21-19-18-17-18-19-------------------|
B|---17----------------------17-17-17-17-17--|
G|-s16---------------------s16-16-16-16-16---|
D|-------------------------------------------|
A|-------------------------------------------|
E|-------------------------------------------|

F#m                A7+
 Se eu queria enlouquecer
C#m       G#m    F#m   A7+
 Essa é a minha chance
   Am7         E    D E7
 É tudo que eu quis
F#m                A7+
 Se eu queria enlouquecer
C#m     G#m F#m      A7+ Am7
 Esse é o romance ideal

INTRO 2x
FIM: F#m F#m A+ F#m F#m A+   E



 


Quer fazer uma correção nesta cifra?







    Comentários (0) Postar um Comentário

    Nenhum comentário encontrado. Seja o primeiro!