Cifra da música: Flores no Deserto - Paralamas do Sucesso

Esse cifra de Paralamas do Sucesso já foi acessado por 632 pessoas.

Comente

Veja também o vídeo da música tocada.


Tom:Em
Intr:

    Em         Em         C         C        Am        Am         B7        B7
E -----------------------------------------------------------------------------------
B -----------------------------------------------------------------------------------
G -------0----2------0----2----------0---2-----0---2--------4---2------4---2---------
D -----4----4------4--4-----4------4---4-----4---4---4----2---2------2---2-----------
A –--2------–----2---------------3---------3------------0----------0-----------------
E –0-------–-------------------------------------------------------------------------

E ---------------------0-----------------------|
B ----------0-------0--------------------------|
G -----2---------2-----------------------------|
D ---1---1-----1-------------------------------|
A -2-------------------------------------------|
E ---------------------------------------------|


Em               C
    Um dia posso até pagar por isso
Am                       B7
    o impossível é meu mais antigo risco
Em               C
    Ou então um delírio do meu coração
Am                       B7
    e ver as coisas onde as coisas não estão

--------------------------------
REFRÃO (distorção)

C/G                C#m5-7
   Tão certo como flores no deserto
    G                           D    (D D9 D D4 D D9 D)2x Cuidado para não se enrolar
   real como as miragens da paixão
--------------------------------

Em               C
    Havia inocência em seu sorriso
Am                       B7
    enquanto caminhava rente ao precipício
Em               C
    estava calmo por acreditar em perfeição
Am                       B7
    Tá qual o tolo da colina na canção

--------------------------------
REFRÃO (distorção)

C/G                C#m5-7
   Tão certo como flores no deserto
    G                           D        (nesta parte repete o riff anterior)
   real como as miragens da paixão
--------------------------------


Em               C
    Um dia posso até pagar por isso
Am                       B7
    o impossível é meu mais antigo risco
Em               C
    Ou então um delírio do meu coração
Am                       B7
    e ver as coisas onde as coisas não estão

--------------------------------
REFRÃO (distorção)

C/G                C#m5-7
   Tão certo como flores no deserto
    G                           D
   real como as miragens da paixão


Quer fazer uma correção nesta cifra?







    Comentários (0) Postar um Comentário

    Nenhum comentário encontrado. Seja o primeiro!