Cifra da música: Cuide Bem do Seu Amor - Paralamas do Sucesso

Esse cifra de Paralamas do Sucesso já foi acessado por 1506 pessoas.

Comente

Veja também o vídeo da música tocada.


Versão 1
-======-

Riff
e|----------------------|
B|----------------------|
G|----------------------|
D|------------------4---|
A|--2---4----4/6--------|
E|----------------------|

Introdução: Riff


    G#m
  A vida sem freio me leva, me arrasta, me cega
       B
  No momento em que eu queria ver
       G#m
  No segundo que antecedo o beijo, a palavra que destrói o amor
         B
  Quando tudo ainda estava inteiro, no instante em que desmoronou


G                    B
  Palavras duras em voz de veludo
G               B
  E tudo muda, adeus velho mundo
G               G#m    F#      Fm7(5b)
  Há um segundo tudo estava em paz
B       A6         G#m       G
  Cuide bem do seu amor, seja quem for
B       A6         G#m       C#7/9-  F#   F#m   Em   F#
  Cuide bem do seu amor, seja quem    for

(Riff)

    G#m
  E cada segundo, cada momento, cada instante 
           B
  É quase eterno, passa devagar
         G#m
  Se seu mundo for um mundo inteiro, sua vida, seu amor, seu lar
        B
  Cuide tudo que for verdadeiro, deixe tudo que não for passar

G                    B
  Palavras duras em voz de veludo
G               B
  E tudo muda, adeus velho mundo
G               G#m    F#      Fm7(5b)
  Há um segundo tudo estava em paz
B       A6         G#m       G
  Cuide bem do seu amor, seja quem for
B       A6         G#m       C#7/9-  F#   F#m   Em   F#
  Cuide bem do seu amor, seja quem    for

        
(Solo)
e|-----------------------------------------------------------------------------|
B|-----------------------------------------------------------------------------|
G|-----------------------------------------------------------------------------|
D|-------4--5/6--4-----------------------------------------------4---4---------|
A|----2-4/6---------6-4-2------2------------4--4/2---4--2--4/6--6---6--4-2--4/6|
E|-------------------------2-4---4--2--4/6-------------------------------------|



e|-----------------------------------------------------------------------------|
B|-----------------------------------------------------------------------------|
G|-----------------------------------------------------------------------------|
D|-------------------5/6--------------4-------------------------4/5/4----------|
A|-4-------2---4-2--------4---2--4/6-----6h4---2-----2---2h4p2-------4---2h4---|
E|---4--2-----------------------------------------2---4----------------------4-|      
        

G                    B
  Palavras duras em voz de veludo
G               B
  E tudo muda, adeus velho mundo
G               G#m    F#      Fm7(5b)
  Há um segundo tudo estava em paz
B       A6         G#m       G
  Cuide bem do seu amor, seja quem for
B       A6         G#m       C#7/9-  F#
  Cuide bem do seu amor, seja quem    for
B       A6  G#m  G           B  A6    G#m   G   A   B
  Cuide bem...       do seu amor...   a hay

e|-----------------------------------------------------------------------------|
B|-----------------------------------------------------------------------------|
G|-6--4-6-4-6--6-4-------------------------------------------------------------|
D|-----------------6-4-----4---------------------------------------------------|
A|---------------------2-4-----2-----------------------------------------------|
E|-----------------------------------------------------------------------------|
_____


 




Versão 2
-======-

Braçadeira na 2ª casa

	  EADGBe
G6       (320030)

Riff
E|-------------------------|
B|-------------------------|
G|-------------------------|
D|-----------2-------------|
A|--0--2h4-----------------|
E|-------------------------|


Introdução: Riff


    F#m
  A vida sem freio me leva, me arrasta, me cega
       A
  No momento em que eu queria ver
       F#m
  No segundo que antecedo o beijo, a palavra que destrói o amor
         A
  Quando tudo ainda estava inteiro, no instante em que desmoronou


F                    A
  Palavras duras em voz de veludo
F               A
  E tudo muda, adeus velho mundo
F               F#m    E       B
  Há um segundo tudo estava em paz
A       G6         D/F#       F
  Cuide bem do seu amor, seja quem for
A       G6         D/F#       B7        E   Em   Dm   E
  Cuide bem do seu amor, seja quem    for

(Riff)

    F#m
  E cada segundo, cada momento, cada instante 
           A
  É quase eterno, passa devagar
         F#m
  Se seu mundo for um mundo inteiro, sua vida, seu amor, seu lar
        A
  Cuide tudo que for verdadeiro, deixe tudo que não for passar

F                    A
  Palavras duras em voz de veludo
F               A
  E tudo muda, adeus velho mundo
F              F#m    E      B
  Há um segundo tudo estava em paz
A       G6         D/F#       F
  Cuide bem do seu amor, seja quem for
A       G6         D/F#       B7     E   Em   Dm   E
  Cuide bem do seu amor, seja quem    for

        
(Solo - com a braçadeira na 2ª casa!)
e|-----------------------------------------------------------------------------|
B|-----------------------------------------------------------------------------|
G|-----------------------------------------------------------------------------|
D|-------2--3/4--2-----------------------------------------------2---2---------|
A|--0-2h4-----------4-2-0------0------------2--2/0---2--0--2/4--4---4--2-0--2/4|
E|-------------------------0-2---2--0--2/4-------------------------------------|

e|-----------------------------------------------------------------------------|
B|-----------------------------------------------------------------------------|
G|-----------------------------------------------------------------------------|
D|-------------------3/4--------------0-------------------------2/3/2----------|
A|-2-------0---2-0--------2---0--2/4-----4h2---0-----0---0h2p0-------2---0h2---|
E|---2--0-----------------------------------------0---2----------------------2-|

F                    A
  Palavras duras em voz de veludo
F               A
  E tudo muda, adeus velho mundo
F               F#m    E      B
  Há um segundo tudo estava em paz
A       G6         D/F#       F
  Cuide bem do seu amor, seja quem for
A       G6         D/F#       B7     E
  Cuide bem do seu amor, seja quem    for
A       G6   D/F#  F           A  G6    D/F#   F   G   A
  Cuide bem...       do seu amor...   a hay

e|-----------------------------------------------------------------------------|
B|-----------------------------------------------------------------------------|
G|-4--2-4-2-4--4-2-------------------------------------------------------------|
D|-----------------4-2-----2---------------------------------------------------|
A|---------------------0-2-----0-----------------------------------------------|
E|-----------------------------------------------------------------------------|

_____









Quer fazer uma correção nesta cifra?







    Comentários (0) Postar um Comentário

    Nenhum comentário encontrado. Seja o primeiro!