Cifra da música: Amor em Vão - Paralamas do Sucesso

Esse cifra de Paralamas do Sucesso já foi acessado por 703 pessoas.

Comente

Veja também o vídeo da música tocada.


Versão 1
-======-

           D                 Bm
B
e-3p2-0-2----------2-3p2-0-2---------2-3p2-0-2-5---|
B--------3-----3-----------------3-----------------|
G------------2---2-------------2---2---------------|
D----------0---------------------------------------|
A----------------------------2---------------------|
E--------------------------------------------------|

     F#m       G

e---------2--------0--|
B-------2---2------3--|  Repete só q ao invés do G  
G-----2---------0-----|  tocá-se o A7 à seguir:
D----2----------------|
A--4------------------|
E-------------3-------|

    A7

e-----------0-------|  
B-----3-2-3-0-------|
B-----2-2-2---------|   Fim da introdução
D---2---------------|
A--0----------------|
E-------------------|

 Canto:

        A/C#         F#m7     Bm         
Céu  azul  os  dois  pés  na  água, 

 Bm/A    E/G#
Aonde o mar acaba, 

   A7        A#º        G      Gm7  D
O  frio,  a  tarde,  a  solidão, 

        A/C#     F#m7       Bm       
Duas  mãos vão rasgando as  cartas  
 
 Bm/A        E/G#
Lavando  as  máguas,
 
  A7     A#º    G           Gm7  D
Assim  é  o  amor  em  vão

          Bm                     F#m7           
Cada  canção  de amor  abre  a  ferida  

      A7           D
Que  não  vê fim

          Bm                     F#m7     
Cada  fração  da  dor  agora  é  chuva,  

 A7
Cai  em  mim

     G     G/A    Bm
Mas  tudo  vai  passar

    F#m/C#    G   Gm7
Como  tudo  passa             ---> INTRO...  REPETE A MÚSICA...

______________________________________________
Contribuição : Ivan Nicola Viragine ([email protected])






Versão 2
-======-

tom: D
intro: D Bm F#m G D Bm F#m A4/7 A7 


D         C#m7(b5)
 Céu azul
           F#7(b13)  Bm
E os dois pés na_____água
   Bm7/A      E/G#     
Aonde o mar acaba
     A      A#°      G      Gm
No frio, a tarde, a solidão
D         C#m7(b5)  F#7(b13) Bm
 Duas mãos, vão rasgando as cartas
  Bm7/A     E/G# 
Lavando as mágoas
   A    A#° G         Gm
Assim é o amor em vão

D        Bm
 Cada canção de amor
          F#m
Abre a ferida
      A4/7  A7
Que não vê fim
D         Bm
 Cada fração da dor
          F#m
Agora é chuva
 A4/7     A7
Cai em mim
     G    A     Bm
Mas tudo vai passar
      A         G
Como tudo passará 





Quer fazer uma correção nesta cifra?







    Comentários (0) Postar um Comentário

    Nenhum comentário encontrado. Seja o primeiro!