Cifra da música: No Need to Explain - Lacuna Coil

Esse cifra de Lacuna Coil já foi acessado por 500 pessoas.

Comente

A música No Need to Explain fez muito sucesso quando foi gravada por Lacuna Coil. Quer conhecer a letra dela? Veja a letra de No Need to Explain e cante.

Veja também o vídeo da música tocada.


Tuning : E A D G B E 	


Intro/Gtr 1:
               
|----------------------------------------------------------------|
|----------------------------------------------------------------|
|--------2-------0---------------2-------0-----------------------|
|5-----------------------5-----------------------5---------------|
|----------------------------------------------------------------|
|----------------------------------------------------------------|

Intro Solo: These notes should be played as semi-artificial harmonics
            with alot of reverb or delay.
               
|--------------------------17------------------------------------|
|--------14------15------------------------14------15------------|
|12--------------------14----------12----------------------14----|
|----------------------------------------------------------------|
|----------------------------------------------------------------|
|----------------------------------------------------------------|

Intro/Gtr. 3:
 
|----------------------------------------------------------------|
|----------------------------------------------------------------|
|----------------------------------------------------------------|
|7---------------------------------------------------------------|
|5---------------8---------------3---------------5---------------|
|----------------6---------------1---------------3---------------|



Verse: Omit the slide the 4th time.  
  
|----------------------------------------------------------------|
|----------------------------------------------------------------|
|----------------------------------------------------------------|
|7-------7-------------------------------------------------------|
|5-------5-------8-------8-------3/--5---5---5---5---5-----5-----|
|----------------6-------6-------1/--3---3---3---3---3-----3-----|

   

Prechorus: Gtr. 2 plays A#5
            
|--------0-----------------------0-------------------------------|
|3---------------3-------3---------------3-------3---------------|
|----------------------------------------------------------------|
|----------------------------------------------------------------|
|----------------------------------------------------------------|
|----------------------------------------------------------------|

Prechorus/Synth.: Gtr. 2 plays G5 
            
|----101210------101210------101210------101210------101210------|
|8-8-------8-8-8-------8-8-8-------8-8-8-------8-8-8-------8-8-8-|
|----------------------------------------------------------------|
|----------------------------------------------------------------|
|----------------------------------------------------------------|
|----------------------------------------------------------------|



Chorus:  

|----------------------------------------------------------------|
|----------------------------------------------------------------|
|7---7---7---7---5---5---5---5-----------------------------------|
|--------------------------------7---7---7---7---8---8---8---8---|
|5---5---5---5---3---3---3---3-----------------------------------|
|--------------------------------5---5---5---5---6---6---6---6---|



Part III: Gtr. 1
                 
|----------------------------------------------------------------|
|----------------------------------------------------------------|
|--------7---------------7---------------7---------------7-------|
|----------------------------------------------------------------|
|5---------------5---------------5---------------5---------------|
|----------------------------------------------------------------|

Part III: Gtr. 2            
|----------------------------------------------------------------|
|----------------------------------------------------------------|
|----------------------------------------------------------------|
|----------------------------------------------------------------|
|5---------------3---------------1---------------3---------------|
|----------------------------------------------------------------|
               

Solo: With Inro/Gtr. 3

|----------------------------------------------------------------|
|----------------------------------------------------------------|
|7/9---10--7-------7/9---10--7-----5---5---7---7---7/--9--7---7-|
|----------------------------------------------------------------|
|----------------------------------------------------------------|
|----------------------------------------------------------------|

     
|----------------------------------------------------------------|
|----------------------------------------------------------------|
|7/9---10--7------12--12--14--14----14/-17-------------7-------|
|----------------------------------------------------------------|
|----------------------------------------------------------------|
|----------------------------------------------------------------|

             
|----------------------------------------------------------------|
|----------------------------------------------------------------|
|9h10--101010--9h10p9--7---9---9h10--101010--9h10p9--7---12------|
|----------------------------------------------------------------|
|----------------------------------------------------------------|
|----------------------------------------------------------------|

      
|----------------------------------------------------------------|
|----------------------------------------------------------------|
|9h10--101010--9h10p9--7---9---9h10--101010--9h10p9--7---12------|
|----------------------------------------------------------------|
|----------------------------------------------------------------|
|----------------------------------------------------------------|



Part IV:
             
|----------------------------------------------------------------|
|----------------------------------------------------------------|
|7---7---7---7---9---9---9---9---10--10--10---12-----12--12--12--|
|----------------------------------------------------------------|
|5---5---5---5---7---7---7---7---8---8---8----10-----10--10--10--|
|----------------------------------------------------------------|
  
|----------------------------------------------------------------|
|----------------------------------------------------------------|
|7---7---7---7---5---5---5---5-----------------------------------|
|--------------------------------7---7---7-----8-----8---8---8---|
|5---5---5---5---3---3---3---3-----------------------------------|
|--------------------------------5---5---5-----6-----6---6---6---|







Quer fazer uma correção nesta cifra?







    Comentários (0) Postar um Comentário

    Nenhum comentário encontrado. Seja o primeiro!