Cifra da música: Heir of a dying day - Lacuna Coil

Esse cifra de Lacuna Coil já foi acessado por 548 pessoas.

Comente

A música Heir of a dying day fez muito sucesso quando foi gravada por Lacuna Coil. Quer conhecer a letra dela? Veja a letra de Heir of a dying day e cante.

Veja também o vídeo da música tocada.


              tabbed & transcribed by Do Quang Son Thomas ([email protected])
                     
GREAT great song, funny to play, love these guys ! (especially Cristina :-) )

INTRO :
      
                                                 x4
|--------------------------------------------------|
|--------------------------------------------------|
|--------------------------------------------------|
|-----0--------0-----0-----0-----0-----0-----0-----|
|-----------------------1-----1-----0-----5-----0--|
|--3-----3--4-----4--------------------------------|

                                                   x4
|----------------------------------------------------|
|----------------------------------------------------|
|-----0--------------0-----------0-----------0-------|
|--------------0-----------0-----------0-------------|
|----------------------------------------------------|
|--3-----3--4-----4-----8-----8-----7-----7-----7x--|

                                          x4
|-------------------------------------------|
|-------------------------------------------|
|-------------------------------------------|
|--5--------6----------10--------9----------|
|--5--------6----------10--------9----------|
|--3--------4----------8---------7----------|
|                                           |
|                                           |
|-------------------------------------------|
|--3--4--3--4----3--4----3--4----3----4--3--|
|--0--0--0--0----0--0----0--0----0----0--0--|
|-------------------------------------------|
|-------------------------------------------|
|-------------------------------------------|

VERSE 1 :

                                                   x4
|----------------------------------------------------|
|----------------------------------------------------|
|-----0--------------0-----------0-----------0-------|
|--------------0-----------0-----------0-------------|
|----------------------------------------------------|
|--3-----3--4-----4-----8-----8-----7-----7-----7x--|
   He's the one 
   when you feel the heat
   that he makes you feel 
   as a wonder

                                                   x4
|----------------------------------------------------|
|----------------------------------------------------|
|-----0--------------0-----------0-----------0-------|
|--------------0-----------0-----------0-------------|
|----------------------------------------------------|
|--3-----3--4-----4-----8-----8-----7-----7-----7x--|
   He promises you 
   no more tears to cry
   all the colours 
   into the rainbow

CHORUS :

                                          x4
|-------------------------------------------|
|-------------------------------------------|
|-------------------------------------------|
|--5--------6----------10--------9----------|
|--5--------6----------10--------9----------|
|--3--------4----------8---------7----------|
|                                           |
|                                           |
|-------------------------------------------|
|--3--4--3--4----3--4----3--4----3----4--3--|
|--0--0--0--0----0--0----0--0----0----0--0--|
|-------------------------------------------|
|-------------------------------------------|
|-------------------------------------------|
   Comes after the rain to please your
   eyes with all the colours that you
   cannot see he came to save us
   you will see

                                          x4
|-------------------------------------------|
|-------------------------------------------|
|-------------------------------------------|
|--5--------6----------10--------9----------|
|--5--------6----------10--------9----------|
|--3--------4----------8---------7----------|
|                                           |
|                                           |
|-------------------------------------------|
|--3--4--3--4----3--4----3--4----3----4--3--|
|--0--0--0--0----0--0----0--0----0----0--0--|
|-------------------------------------------|
|-------------------------------------------|
|-------------------------------------------|
   Standing aside he's the saviour
   of your only human part you
   cannot see he came to save us
   you will see

VERSE 2 :

                                                   x4
|----------------------------------------------------|
|----------------------------------------------------|
|-----0--------------0-----------0-----------0-------|
|--------------0-----------0-----------0-------------| 
|----------------------------------------------------|
|--3-----3--4-----4-----8-----8-----7-----7-----7x--|

                                                   x4
|----------------------------------------------------|
|----------------------------------------------------|
|-----0--------------0-----------0-----------0-------|
|--------------0-----------0-----------0-------------|
|----------------------------------------------------|
|--3-----3--4-----4-----8-----8-----7-----7-----7x--|
   Breathing
   as a child is born
   as a cancer is
   killing my past

                                                   x4
|----------------------------------------------------|
|----------------------------------------------------|
|-----0--------------0-----------0-----------0-------|
|--------------0-----------0-----------0-------------|
|----------------------------------------------------|
|--3-----3--4-----4-----8-----8-----7-----7-----7x--|
   I'm wondering
   how long I'll resist
   virus into my mind
   as a rainbow

CHORUS

INTERLUDE :

 Guitar I (x8)                                
|-------------------------------------------|
|-------------------------------------------|
|-------------------------------------------|
|-------------------------------------------|
|--/5----5----------------------------------|
|-----------3----3--1----1--/6----6-5----5--|

 Guitar II (x4)
|--------------------------------------------|
|--------------------------------------------|
|--/7----7-----------------------------------|
|-----------8----8-----7----7--7h8p75----5--|
|-------------------8------------------------|
|--------------------------------------------|

|-------------------------------------------|
|-------------------------------------------|
|--/7----7--0---------------------0---------|
|-----------8----8----10----10----7----7----|
|-------------------------------------------|
|-------------------------------------------|

   Shines on me
   this little light on me
   goes on

PRE CHORUS :

                     x4
|----------------------|
|----------------------|
|----------------------|
|--5----6----10---9----|
|----------------------|
|--3----4----8----7----|
   Feed it

CHORUS

END CHORUS :

                                          x4
|-------------------------------------------|
|-------------------------------------------|
|-------------------------------------------|
|--5--------6----------10--------9----------|
|--5--------6----------10--------9----------|
|--3--------4----------8---------7----------|
|                                           |
|                                           |
|-------------------------------------------|
|--3--4--3--4----3--4----3--4----3----4--3--|
|--0--0--0--0----0--0----0--0----0----0--0--|
|-------------------------------------------|
|-------------------------------------------|
|-------------------------------------------|
   Watch your dying day comes

OUTRO :

 4`27
|-------------------------------------------------------------------------------|
|----------8--------------8--------------8--------------8--------------8--------|
|--0----5-----7--7--0--5-----7--7--0--5-----0--7--0--5-----0--7--0--5-----0--7--|
|-------------------------------------------------------------------------------|
|-------------------------------------------------------------------------------|
|-------------------------------------------------------------------------------|

|-----------------------------------------------------------------------------|
|--------8--------------8--------------8--------------8--------------8--------|
|--0--5-----0--7--0--5-----5--7--0--5-----5--7--0--5-----5--7--0--5-----5--7--|
|-----------------------------------------------------------------------------|
|-----------------------------------------------------------------------------|
|-----------------------------------------------------------------------------|

|--------------------------------------------------------------------------|
|--------8--------------8--------------8-----------8--------------8--------|
|--0--5-----5--7--0--5-----5--7--0--5-----7--0--5-----0--7--0--5-----0--7--|
|--------------------------------------------------------------------------|
|--------------------------------------------------------------------------|
|--------------------------------------------------------------------------|

|----------------------------------------------------------------------------|
|--------8--------------8--------------8-------------8--------------8--------|
|--0--5-----0--7--0--5-----0--7--0--5-----0--7-0--5-----0--7--0--5-----0--7--|
|----------------------------------------------------------------------------|
|----------------------------------------------------------------------------|
|----------------------------------------------------------------------------|

|--------------------------------------------------------------------------------------|
|--------8--------------8--------------8--------------8--------------8--------------8--|
|--0--5-----0--7--0--5-----0--7--0--5-----0--7--0--5-----0--7--0--5-----0--7--0--5-----|
|--------------------------------------------------------------------------------------|
|--------------------------------------------------------------------------------------|
|--------------------------------------------------------------------------------------|





Quer fazer uma correção nesta cifra?







    Comentários (0) Postar um Comentário

    Nenhum comentário encontrado. Seja o primeiro!