Cifra da música: Hyperfast - Lacuna Coil

Esse cifra de Lacuna Coil já foi acessado por 507 pessoas.

Comente

A música Hyperfast fez muito sucesso quando foi gravada por Lacuna Coil. Quer conhecer a letra dela? Veja a letra de Hyperfast e cante.

Veja também o vídeo da música tocada.


Words by Cristina Scabbia/Andrea FerroMusic by Marco Coti Zelati/Marco Biazzi
Arranged by Lacuna Coil
Transcribed by Valentino Boccedi

Gtr I (E A D G B E) - 'Clean Guitar'
Gtr II (E A D G B E) - 'Ditortion Guitar'
Gtr III (E A D G B E) - 'P.m.'
Gtr IV (E A D G B E) - 'Distortion Guitar'

 Intro
  Q=125
 4/4
  Gtr I
  E  E Q   E E Q     E  E Q   E E Q     E  E Q   E E Q     E  E Q    E Q   E
|------------------|------------------|------------------|-------------------|
|------0-----0-----|------------------|------0-----0-----|-------------------|
|----------0---0---|------2-------0---|----------0---0---|------2------0-----|
|----2-------------|----0-------0---0-|----2-------------|----0------0-----0-|
|--------3---------|----------4-------|--------3---------|-------------------|
|-0--------------0-|-3------5---------|-0--------------0-|-3------5------3---|
  Q.     H       E   Q.     H       E   Q.     H       E   Q.     Q.     Q


  E  E Q   E E Q     E  E Q   E E Q     E  E Q   E E Q     E  E Q    E Q   E
|------------------|------------------|------------------|-------------------|
|------0-----0-----|------------------|------0-----0-----|-------------------|
|----------0---0---|------2-------0---|----------0---0---|------2------0-----|
|----2-------------|----0-------0---0-|----2-------------|----0------0-----0-|
|--------3---------|----------4-------|--------3---------|-------------------|
|-0--------------0-|-3------5---------|-0--------------0-|-3------5------3---|
  Q.     H       E   Q.     H       E   Q.     H       E   Q.     Q.     Q


 Verse
  Gtr II
  E Q  E Q  E E   +Q.   H    +E    E Q  E Q  E E   +Q.   H    +E
|---------------|----------------|---------------|----------------|
|---------------|----------------|---------------|----------------|
|---------------|----------------|---------------|----------------|
|-2-2--4-4--5-5-|-(5)---7----(7)-|-2-2--4-4--5-5-|-(5)---7----(7)-|
|-2-2--2-2--3-3-|-(3)---7----(7)-|-2-2--2-2--5-5-|-(5)---5----(5)-|
|-0-0--2-2--3-3-|-(3)---5----(5)-|-0-0--2-2--3-3-|-(3)---5----(5)-|


  E Q  E Q  E E   +Q.   H    +E    E Q  E Q  E E   +Q.   H    +E
|---------------|----------------|---------------|----------------|
|---------------|----------------|---------------|----------------|
|---------------|----------------|---------------|----------------|
|-2-2--4-4--5-5-|-(5)---7----(7)-|-2-2--4-4--5-5-|-(5)---7----(7)-|
|-2-2--2-2--3-3-|-(3)---7----(7)-|-2-2--2-2--5-5-|-(5)---5----(5)-|
|-0-0--2-2--3-3-|-(3)---5----(5)-|-0-0--2-2--3-3-|-(3)---5----(5)-|


  Gtr II
  Q.   H   E    +Q.    H  +E     Q.   H   E    +Q.    H  +E
|-------------|----------------|-------------|-----------------|
|-------------|----------------|-------------|-----------------|
|-------------|----------------|-------------|-----------------|
|-2----4---5--|-(5)----7--(7)--|-2----4---5--|-(5)----7--(7)---|
|-2----2---3--|-(3)----7--(7)--|-2----2---5--|-(5)----5--(5)---|
|-0----2---3--|-(3)----5--(5)--|-0----2---3--|-(3)----5--(5)---|


  Q.   H   E    +Q.    H  +E      Q.   H   E    +Q.    H  +E
|-------------|-----------------|-------------|------------------|
|-------------|-----------------|-------------|------------------|
|-------------|-----------------|-------------|------------------|
|-2----4---5--|-(5)----7--(7)---|-2----4---5--|-(5)----7--(7)----|
|-2----2---3--|-(3)----7--(7)---|-2----2---5--|-(5)----5--(5)----|
|-0----2---3--|-(3)----5--(5)---|-0----2---3--|-(3)----5--(5)----|


 Interlude
  Gtr I
  E E E E E E E E   E E E E E E E E   E E E E E E E E   E E E E E E E E
|-----------------|-----------------|-----------------|-----------------|
|-----------------|-----------------|-----------------|-----------------|
|-----0-----0-----|---0-----0-------|-----0-----0-----|---0-----0-------|
|---4-----4-------|-4-----4---4---4-|---4-----4-------|-4-----4---4---4-|
|-2-----2-------2-|-----2-------2---|-2-----2-------2-|-----2-------2---|
|-------------0---|-----------------|-------------0---|-----------------|


  E E E E E E E E   E E E E E E E E   E E E E E E E E   E E E E E E E E
|-----------------|-----------------|-----------------|-----------------|
|-----------------|-----------------|-----------------|-----------------|
|-----0-----0-----|---0-----0-------|-----0-----0-----|---0-----0-------|
|---4-----4-------|-4-----4---4---4-|---4-----4-------|-4-----4---4---4-|
|-2-----2-------2-|-----2-------2---|-2-----2-------2-|-----2-------2---|
|-------------0---|-----------------|-------------0---|-----------------|


 Pre-Chorus
  Gtr IV
  Q.    H      E   +Q.      H     +E    Q.    H      E   +Q.      H     +E
|----------------|--------------------|----------------|--------------------|
|----------------|--------------------|----------------|--------------------|
|----------------|--------------------|----------------|--------------------|
|-7-----7------8-|-(8)------5-----(5)-|-7-----7------8-|-(8)------5-----(5)-|
|-5-----7------8-|-(8)------5-----(5)-|-5-----7------8-|-(8)------5-----(5)-|
|-5-----5------6-|-(6)------3-----(3)-|-5-----5------6-|-(6)------3-----(3)-|
|
| Gtr II
| E E E E E Q  E   +Q    Q  Q  Q        E E E E E Q  E   +Q    Q  Q  Q
|----------------|--------------------|----------------|--------------------|
|-3h5p3h5p3------|----------5--3------|-3h5p3h5p3------|--------------------|
|-----------2S=5-|-(5)---3------------|-----------2S=5-|-(5)---3--3--2------|
|----------------|--------------------|----------------|--------------------|
|----------------|--------------------|----------------|--------------------|
|----------------|--------------------|----------------|--------------------|


  Q.    H      E   +Q.      H     +E    Q.    H      E   +Q.       H      +E
|----------------|--------------------|----------------|----------------------|
|----------------|--------------------|----------------|----------------------|
|----------------|--------------------|----------------|----------------------|
|-7-----7------8-|-(8)------5-----(5)-|-7-----7------8-|-(8)------10-----(10)-|
|-5-----7------8-|-(8)------5-----(5)-|-5-----7------8-|-(8)------10-----(10)-|
|-5-----5------6-|-(6)------3-----(3)-|-5-----5------6-|-(6)-------8------(8)-|
|
| E E E E E Q  E    Q    Q  Q  Q        E E E E E Q  E   +Q    Q   Q  Q
|----------------|--------------------|----------------|----------------------|
|-3h5p3h5p3------|----------5--3------|-3h5p3h5p3------|----------------------|
|-----------2S=5-|--5----3------------|-----------2S=5-|-(5)---3---3--2-------|
|----------------|--------------------|----------------|----------------------|
|----------------|--------------------|----------------|----------------------|
|----------------|--------------------|----------------|----------------------|


 Chorus
  Gtr IV
  Q.     H    E   +Q.     H       +E    Q.     H    E   +Q.     H   +E
|---------------|---------------------|---------------|-------------------|
|---------------|---------------------|---------------|-------------------|
|---------------|---------------------|---------------|-------------------|
|-7------2----3-|-(3)-----5-------(5)-|-7------7----3-|-(3)-----5---(5)---|
|-5------2----1-|-(1)-----5-------(5)-|-5------7----1-|-(1)-----3---(3)---|
|-5------0----1-|-(1)-----3-------(3)-|-5------5----1-|-(1)-----3---(3)---|
|
| Gtr II
| E  E E H    E   +E  E E E E E Q       E  E E H    E    E  E E E E  E  Q
|---------------|---------------------|---------------|-------------------|
|---------------|---------------------|---------------|-------------------|
|----9p7--------|-----7---9p7---------|----9-7--------|-----7---9p7-------|
|-7------7----7-|-(7)---7-----7-------|-7------7----7-|--7----7------7----|
|---------------|---------------8-----|---------------|-----------------8-|
|---------------|---------------------|---------------|-------------------|


  Q.   H     E   +Q.       H      +E    Q.       H    E   +Q.       H   +E
|--------------|----------------------|-----------------|--------------------|
|--------------|----------------------|-----------------|--------------------|
|--------------|----------------------|-----------------|--------------------|
|-7----2-----3-|-(3)-------5------(5)-|-7--------7----3-|-(3)-------5---(5)--|
|-5----2-----1-|-(1)-------5------(5)-|-5--------7----1-|-(1)-------3---(3)--|
|-5----0-----1-|-(1)-------3------(3)-|-5--------5----1-|-(1)-------3---(3)--|
|
| E  E E H   E    E  E E E E E Q        E  E E H      E    E  E E E E E  Q
|--------------|----------------------|-----------------|--------------------|
|--------------|----------------------|-----------------|--------------------|
|----9p7-------|-----7---9p7----------|----9p7----------|-----7---9p7--------|
|-7------7---7-|--7----7-----7--------|-7------7------7-|--7----7-----7------|
|--------------|---------------8------|-----------------|----------------8---|
|--------------|----------------------|-----------------|--------------------|


 Interlude
  Gtr I
  E E E E E E E E   E E E E E E E E   E E E E E E E E   E E E E E E E E
|-----------------|-----------------|-----------------|-----------------|
|-----------------|-----------------|-----------------|-----------------|
|-----0-----0-----|---0-----0-------|-----0-----0-----|---0-----0-------|
|---4-----4-------|-4-----4---4---4-|---4-----4-------|-4-----4---4---4-|
|-2-----2-------2-|-----2-------2---|-2-----2-------2-|-----2-------2---|
|-------------0---|-----------------|-------------0---|-----------------|


  E E E E E E E E   E E E E E E E E   E E E E E E E E   E E E E E E E E
|-----------------|-----------------|-----------------|-----------------|
|-----------------|-----------------|-----------------|-----------------|
|-----0-----0-----|---0-----0-------|-----0-----0-----|---0-----0-------|
|---4-----4-------|-4-----4---4---4-|---4-----4-------|-4-----4---4---4-|
|-2-----2-------2-|-----2-------2---|-2-----2-------2-|-----2-------2---|
|-------------0---|-----------------|-------------0---|-----------------|


 Breakdown
 3/4
  Gtr III
  PM|
  E E H               H.           H.
|-------------|--------------|--------------|
|-------------|--------------|--------------|
|-------------|--------------|--------------|
|-2-2---------|--------------|--------------|
|-2-2---------|--------------|--------------|
|-0-0---------|--------------|--------------|
|
| Gtr I
| E E E E E E   E E E E  E E   E E E  E E E
|-------------|--------------|--------------|
|---------3---|----------3---|----------3---|
|---4---4---4-|---4---4----4-|---4----4---4-|
|-2---2-------|-2---2--------|-2---2--------|
|-------------|--------------|--------------|
|-------------|--------------|--------------|


             Gtr II
    H.           H.             +H.
|--------------|--------------|----------------|
|--------------|--------------|----------------|
|--------------|-7------------|-(7)------------|
|--------------|-5------------|-(5)------------|
|--------------|-3------------|-(3)------------|
|--------------|--------------|----------------|
|
|                Gtr II
| E E  E E E E   E  E E E E E    E  E E E E E
|--------------|--------------|----------------|
|----------3---|--------------|----------------|
|---4----4---4-|------2---2---|-------2---2-4--|
|-2----2-------|----5-5-5-5-5-|-----5-5-5-5-5--|
|--------------|-3------------|--3-------------|
|--------------|--------------|----------------|


                                        ~~~~~
  H.             +H.             Q  E E Q
|--------------|---------------|----------------|
|--------------|---------------|----------------|
|-7------------|-(7)-----------|----------------|
|-5------------|-(5)-----------|----------------|
|-3------------|-(3)-----------|---/5-----------|
|--------------|---------------|-0----3-2b2.5---|
|
| E  E E E E E    E  E E E E E   Q  E E E     E
|--------------|---------------|----------------|
|--------------|---------------|----------------|
|------2---2---|-------2---2-4-|----7---7-------|
|----5-5-5-5-5-|-----5-5-5-5-5-|------5-------7-|
|-3------------|--3------------|----------------|
|--------------|---------------|-0--------------|


           ~~~~~     PM|       ~~~~~              ~~~~~
  E E  E E Q         E E   E E Q         E E  E E Q
|------------------|-------------------|---------------------|
|------------------|-------------------|---------------------|
|------------------|-------------------|---------------------|
|------------------|-------------------|---------------------|
|-----/5-----------|------/5-----------|-----/5--------------|
|-0-0----3-2b2.5---|-0-0-----3-2b2.5---|-0-0----3-2b2.5------|
|
|                    PM|
| E E  E E E     E   E E   E E E     E   E E  E E E     E
|------------------|-------------------|---------------------|
|------------------|-------------------|---------------------|
|------7---7-------|-------7---7-------|------7---7----------|
|--------5-------7-|---------5-------7-|--------5-------7----|
|------------------|-------------------|---------------------|
|-0-0--------------|-0-0---------------|-0-0-----------------|


  Gtr II
    E  E E E E E    E  E E E E E   E  E E E E E
|----------------|---------------|--------------|
|----------------|---------------|--------------|
|--------7---7---|-------7---7---|------7---7---|
|------5---5---5-|-----5---5---5-|----5---5---5-|
|---3------------|--3------------|-3------------|
|----------------|---------------|--------------|
|
| Gtr IV
|   H.             +H.             H.
|----------------|---------------|--------------|
|----------------|---------------|--------------|
|---7------------|-(7)-----------|-7------------|
|---5------------|-(5)-----------|-5------------|
|---3------------|-(3)-----------|-3------------|
|----------------|---------------|--------------|


                           ~~~~~
   E  E E E E E   Q  E  E  Q
|---------------|------------------|
|---------------|------------------|
|-------7---7---|------------------|
|-----5---5---5-|------------------|
|--3------------|---/5-------------|
|---------------|-0-----3--2b2.5---|
|
| +H.             Q  E  E  E     E
|---------------|------------------|
|---------------|------------------|
|-(7)-----------|----7-----7-------|
|-(5)-----------|------/5--------7-|
|-(3)-----------|------------------|
|---------------|-0----------------|


           ~~~~~     PM|      ~~~~~              ~~~~~
  E E  E E Q         E E  E E Q         E E  E E Q
|------------------|------------------|------------------|
|------------------|------------------|------------------|
|------------------|------------------|------------------|
|------------------|------------------|------------------|
|-----/5-----------|-----/5-----------|-----/5-----------|
|-0-0----3-2b2.5---|-0-0----3-2b2.5---|-0-0----3-2b2.5---|
|
|                    PM|
| E E  E E E     E   E E  E E E     E   E E  E E E     E
|------------------|------------------|------------------|
|------------------|------------------|------------------|
|------7---7-------|------7---7-------|------7---7-------|
|--------5-------7-|--------5-------7-|--------5-------7-|
|------------------|------------------|------------------|
|-0-0--------------|-0-0--------------|-0-0--------------|


  H.             +H.             H.             +H.
|--------------|---------------|--------------|-----------------|
|--------------|---------------|--------------|-----------------|
|-7------------|-(7)-----------|-7------------|-(7)-------------|
|-5------------|-(5)-----------|-5------------|-(5)-------------|
|-3------------|-(3)-----------|-3------------|-(3)-------------|
|--------------|---------------|--------------|-----------------|
|
| E  E E E E E    E  E E E E E   E  E E E E E    E  E E E E E
|--------------|---------------|--------------|-----------------|
|--------------|---------------|--------------|-----------------|
|------7---7---|-------7---7---|------7---7---|-------7---7-----|
|----5---5---5-|-----5---5---5-|----5---5---5-|-----5---5---5---|
|-3------------|--3------------|-3------------|--3--------------|
|--------------|---------------|--------------|-----------------|


          ~~~~~              ~~~~~     PM|      ~~~~~              ~~~~~
  Q   E E Q         E E  E E Q         E E  E E Q         E E  E E Q
|-----------------|------------------|------------------|------------------|
|-----------------|------------------|------------------|------------------|
|-----------------|------------------|------------------|------------------|
|-----------------|------------------|------------------|------------------|
|----/5-----------|-----/5-----------|-----/5-----------|-----/5-----------|
|-0-----3-2b2.5---|-0-0----3-2b2.5---|-0-0----3-2b2.5---|-0-0----3-2b2.5---|
|
|                                      PM|
| Q   E E E     E   E E  E E E     E   E E  E E E     E   E E  E E E     E
|-----------------|------------------|------------------|------------------|
|-----------------|------------------|------------------|------------------|
|-----7---7-------|------7---7-------|------7---7-------|------7---7-------|
|-------5-------7-|--------5-------7-|--------5-------7-|--------5-------7-|
|-----------------|------------------|------------------|------------------|
|-0---------------|-0-0--------------|-0-0--------------|-0-0--------------|


  H.             +H.             H.             +H.
|--------------|---------------|--------------|------------------|
|--------------|---------------|--------------|------------------|
|-7------------|-(7)-----------|-7------------|-(7)--------------|
|-5------------|-(5)-----------|-5------------|-(5)--------------|
|-3------------|-(3)-----------|-3------------|-(3)--------------|
|--------------|---------------|--------------|------------------|
|
| E  E E E E E    E  E E E E E   E  E E E E E    E  E E E E E
|--------------|---------------|--------------|------------------|
|--------------|---------------|--------------|------------------|
|------7---7---|-------7---7---|------7---7---|-------7---7------|
|----5---5---5-|-----5---5---5-|----5---5---5-|-----5---5---5----|
|-3------------|--3------------|-3------------|--3---------------|
|--------------|---------------|--------------|------------------|


 Outro
 4/4
  E E E E E Q  E   +Q     Q  Q  Q    E E E E E Q  E   +Q     Q  H
|----------------|-----------------|----------------|----------------|
|-3h5p3h5p3------|-----------5--3--|-3h5p3h5p3------|----------------|
|-----------2S=5-|-(5)----3--------|-----------2S=5-|-(5)------------|
|----------------|-----------------|----------------|----------------|
|----------------|-----------------|----------------|--------1--0----|
|----------------|-----------------|----------------|----------------|


  E E E E E Q  E   +Q   Q  Q  Q   E E E E E Q  E   +Q   Q  Q  Q
|----------------|--------------|----------------|-----------------||
|-3h5p3h5p3------|---------5--3-|-3h5p3h5p3------|-----------------||
|-----------2S=5-|-(5)--3-------|-----------2S=5-|-(5)--3--3--2----||
|----------------|--------------|----------------|-----------------||
|----------------|--------------|----------------|-----------------||
|----------------|--------------|----------------|-----------------||


Duration Legend
---------------
W - whole; H - half; Q - quarter; E - 8th; S - 16th; T - 32nd; X - 64th; a - acciaccatura
+ - note tied to previous; . - note dotted; .. - note double dotted
Uncapitalized letters represent notes that are staccato (1/2 duration)
Irregular groupings are notated above the duration line
Duration letters will always appear directly above the note/fret number it represents the
duration for.  Duration letters with no fret number below them represent rests.  Multi-
bar rests are notated in the form Wxn, where n is the number of bars to rest for.  Low
melody durations appear below the staff

Tablature Legend
----------------
 h   - hammer-on
 p   - pull-off
 b   - bend
 pb  - pre-bend
 r   - bend release (if no number after the r, then release immediately)
 /  - slide into or out of (from/to 'nowhere')
 s   - legato slide
 S   - shift slide
  - natural harmonic
[n]  - artificial harmonic
n(n) - tapped harmonic
 ~   - vibrato
 tr  - trill
 T   - tap
 TP  - trem. picking
 PM  - palm muting

/  - tremolo bar dip; n = amount to dip
 
  - tremolo bar down
 n/  - tremolo bar up
/n  - tremolo bar inverted dip
 =   - hold bend; also acts as connecting device for hammers/pulls
   - volume swell (louder/softer)
 x   - on rhythm slash represents muted slash
 o   - on rhythm slash represents single note slash

Misc Legend
-----------
 |  - bar
||  - double bar
||o - repeat start
o|| - repeat end
*|  - double bar (ending)
 :  - bar (freetime)
 $  - Segno
 &  - Coda
Tempo markers -  = BPM(8/16=s8/s16), where s8 = swing 8ths, s16 = swing 16ths




Quer fazer uma correção nesta cifra?







    Comentários (0) Postar um Comentário

    Nenhum comentário encontrado. Seja o primeiro!