Cifra da música: You Could Be Mine - Guns N' Roses

Esse cifra de Guns N' Roses já foi acessado por 1104 pessoas.

Comente

A música You Could Be Mine fez muito sucesso quando foi gravada por Guns N' Roses. Quer conhecer a letra dela? Veja a letra de You Could Be Mine e cante.

Veja também o vídeo da música tocada.


Riff 1: (both guitars)

E|---------------|------14~~---|---------------|-------------| 2x
B|---16b-16h-14--|------14~~---|---14b-14h-12--|------12~~---|
G|---16b-16h-14--|------14~~---|---14b-14h-12--|------12~~---|
D|---------------|--16---------|---------------|--14---------|
A|---------------|-------------|---------------|-------------|
E|---------------|-------------|---------------|-------------|

Riff fig.1: (both guitars)
                                                                              
E|-----------------------|------------------------------|
B|-----------x-16~-------|------14--x--14--x--16h----14-|
G|*----------x-16h----14-|------14--x--14--x--16h----14-|
D|*----------------------|--16--------------------------|
A|-----------------------|------------------------------|
E|-----------------------|------------------------------|
                           1.                
E|-----------------------||--------------------------|------------||
B|------14b----14h----12-||------12b-------14h----12-|------12b---||
G|------14b----14h----12-||------12b-------14h----12-|------12b--*||
D|--16-------------------||--14----------------------|--14-------*||
A|-----------------------||--------------------------|------------||
E|-----------------------||--------------------------|------------||
                           2.
                          ||------------------------------|
                          ||------12b-------12b-------12b-|
                          ||------12b-------12b-------12b-|
                          ||--14--------14--------14------|
                          ||------------------------------|
                          ||------------------------------|
             
Riff 2:

Guitar 1:
                                                        Guitar 2 (Verse Riff **)
E|--------------|-----------------|--------------------|-------|-------|------|
B|--------------|-----------------|--------------------|--10b--|--12b--|------|
G|--9~~~---9/2/-|--13~~~---13/-2/-|--14~~~--14/-2------|-------|-------|--5b--|
D|--------------|-----------------|--------------------|-------|-------|------|
A|--------------|-----------------|--------------------|-------|-------|------|
E|--------------|-----------------|--------------------|-------|-------|------|

Guitar 2: Play E5 (VIII)

Verse Riff:
    F#5                       **                                               
E|-----------------------|-------------------------|-----------------------|
B|-----------------------|-------------------------|-----------------------|
G|-----------------------|----2--4--2--4--2--------|-----------------------|
D|-----------------------|----2--4--2--4--2--4--2--|-----------------------|
A|--4----4----x--4----4--|-------------------4--2--|--4----4----x--4----4--|
E|--2----2----x--2----2--|-------------------------|--2----2----x--2----2--|

                              
                              E5                                                 
E|-------------------------|-------0----------------|-------------------------|
B|-------------------------|-------0----------------|-------------------------|
G|----2--4--2--4--2--------|------------------------|-------4--2--4--2--------|
D|----2--4--2--4--2--4--2--|--2----2----------------|-------4--2--4--2--4--2--|
A|-------------------4--2--|--2----2----5--5/-4--4--|----0--------------4--2--|
E|-------------------------|--0----0----------------|-------------------------|

Chorus:                                                      
     A5    B5   F#5   C#5                                                           
E|-----|-----|-----||-----|               E|---------------|
B|-----|-----|-----||-----|               B|---------------|
G|-----|--4--|-----||--6--|               G|---------------|
D|--7--|--4--|--4--||--6--|               D|---7---6---4---|
A|--7--|--2--|--4--||--4--|               A|---------------|
E|--5--|-----|--2--||-----|               E|---5---4---2---|
                      At end 2nd time            nuthin' done...

Guitar 1 plays Solo 1 and Guitar 2 plays Verse Riff
Solo 1:
 
E|-------------------------------|----------------14-------17b|
B|-17b---------17----14----------|--17~--------------17h14----|
G|---------------------------14--|----------------------------|
D|-----------------------16------|----------------------------|
A|-------------------------------|----------------------------|
E|-------------------------------|----------------------------|
                                              
E|------17b---14--------16b-16--|------16r---14----------------|
B|----------------17h14---------|----------------17h-14--------|
G|------------------------------|------------------------16r---|
D|------------------------------|------------------------------|
A|------------------------------|------------------------------|
E|------------------------------|------------------------------|
                                                                            
E|--------------------------|--------------------|
B|----------------------14b-|----14/-------------|
G|--14b-----------------14b-|----14/-------------|
D|------16--16~-------------|--------------------|
A|--------------------------|--------------------|
E|--------------------------|--------------------|

Bridge:
     G5    F#5        G5     A5          D5   A5
E|-------|----------------------|---------------| 2x
B|-------|----------------------|---------------|
G|-------|----------------------|-------7-------|
D|---5---|--4--------5------7-7-|---7---7----7--|
A|---5---|--4--------5------7-7-|---7---5----7--|
E|---3---|--2--------3------5-5-|---5--------5--|
     G5    F#5        G5       B5   A5   A5    G5   F#5
E|-------|-----------------|---------|-----|-----|----------|
B|-------|-----------------|---------|-----|-----|----------|
G|-------|-----------------|--4------|-----|-----|-----Solo2|
D|---5---|--4--------5-----|--4----7-|--7--|--5--|--4-------|
A|---5---|--4--------5-----|--2----7-|--7--|--5--|--4-------|
E|---3---|--2--------3-----|-------5-|--5--|--3--|--2-------|
Solo 2: (D5 B5 D5 B5 D5 A5 D5 B5) 

Solo 2:

E|----------------------|-----------------------|------------------------|
B|----------7--7--7-----|-------9-----9b-----9b-|------9h-7--9--7--------|
G|----------7--7--7-----|-------9-----9b-----9b-|------9h-7--9--7--------|
D|-------------------9--|----9-----9------------|------------------9--7--|
A|----------------------|-----------------------|------------------------|
E|----------------------|-----------------------|------------------------|

                                                                         
E|--------------------------|--------------------------|
B|-------7--9-9-9--7--9-----|--9r---------------7------|
G|-------7--9-9-9--7--9--7--|--9r-----7h9-9-----7--9h7/|
D|--9~-------------------7--|----------------7---------|
A|--------------------------|--------------------------|
E|--------------------------|--------------------------|

                                                            
E|-----------------------------|-----------------------------|
B|-----------------------------|-----------------------------|
G|--6--7--6--7--6h7h6---6----6-|-----------------------------|
D|--------------------9----9---|---9--9~--7---9-----7--------|
A|-----------------------------|------------9----9-----9--8--|
E|-----------------------------|-----------------------------|

                                                    
E|--------------------------|------------------------|
B|--------------------------|---------------------10b|
G|--------------------------|------------------------|
D|--------------7-----------|------------------9-----|
A|--8r-7r---5---7--5b-------|------------------------|
E|------------7-------7--7--|--10b---7b--------------|

                                                                       
E|----------------7------10b---|--x---------10----9h-10h9h7----9----7h9h|
B|----12b-10~-------10h7-------|--x--10h-7------------------10---10-----|
G|-----------------------------|----------------------------------------|
D|-----------------------------|----------------------------------------|
A|-----------------------------|----------------------------------------|
E|-----------------------------|----------------------------------------|

                                           
E|--7----10-------10---------12b---10-------|
B|----10----8/12------12--10----------12-10-|
G|------------------------------------------|
D|------------------------------------------|
A|------------------------------------------|
E|------------------------------------------|

E|--14----------------17~---14-17-------|--------14----------17---14-----------|
B|--------17--14------------------14-17-|--17~-------17--14----------17h14-17~-|
G|----------------16--------------------|--------------------------------------|
D|--------------------------------------|--------------------------------------|
A|--------------------------------------|--------------------------------------|
E|--------------------------------------|--------------------------------------|

E|----14-------17----17----14-17------17b-|-------17b----17b-------|
B|-------17h14----14--------------14------|-------------------17r--|
G|----------------------------------------|------------------------|
D|----------------------------------------|------------------------|
A|----------------------------------------|------------------------|
E|----------------------------------------|------------------------|
                                                                    
E|------------------------------------|--------------------|----|----|
B|----16------------------------------|--------------------|----|----|
G|--------16--14----------------------|--16~---------------|----|----|
D|----------------16h15h14-12-14--12--|--------------------|----|----|
A|------------------------------------|--------------------|----|----|
E|------------------------------------|--------------------|----|----|

Pre-Chorus: B5  C#5  D5

Lyrics:
I'm a cold heartbreaker
Fit ta burn and I'll rip your heart in two
And I'll leave you lyin' on the bed
I'll be out the door before ya wake
It's nuthin' new ta you
'Cause I think we've seen that movie too

'Cause you could be mine
But you're way out of line 
With your bitch slap rappin'
And your cocaine tongue
You get nuthin' done
I said you could be mine

Now holidays come and then they go
It's nothin' new today
Collect another memory
When I come home late at night
Don't ask me where I've been
Just count your stars I'm home again

'Cause you could be mine
But you're way out of line 
With your bitch slap rappin'
And your cocaine tongue
You get nuthin' done
I said you could be mine

You've gone sketchin' too many times
Why don't ya give it a rest
Why 
Must to find
Another reason to cry

While you're breakin' down my back n'
I been rackin' out my brain
It don't matter how we make it
'Cause it always ends the same
You can push it for more mileage
But your flaps r' wearin' thin
And I could sleep on it 'til morin'
But this nightmare never ends
Don't forget to call my lawyers
With ridiculous demands
Na you can take the pity so far
But it's more than I can stand
'Cause this couchtrip's gettin' older
Tell me how long has it been
'Cause 5 years is forever
Na you haven't grown up yet

You could be mine
But you're way out of line 
With your bitch slap rappin'
And your cocaine tongue
You get nuthin' done
I said you could be
You should be
You could be mine

Yeah!!


Dúvidas: [email protected] 


Quer fazer uma correção nesta cifra?







    Comentários (0) Postar um Comentário

    Nenhum comentário encontrado. Seja o primeiro!