Cifra da música: Knockin On Heaven's Door - Guns N' Roses

Esse cifra de Guns N' Roses já foi acessado por 4535 pessoas.

3.00 / 5 - 2
Comente

A música Knockin On Heaven's Door fez muito sucesso quando foi gravada por Guns N' Roses. Quer conhecer a letra dela? Veja a letra de Knockin On Heaven's Door e cante.

Veja também o vídeo da música tocada.


Introdução:

   G           D               C        
e|-3---3-------------2-0---------------------0---------------------|
B|-3-----3---3-----3-----3---3---------1-------1---1---------------|
G|-0-------0-----2---------2---0---------0-------0-----------------|
D|-0-0---------0---------------0h2---2-----2-----------0h2p0---0---|
A|-2-------------------------------3-------------------------3-----|
E|-3---------------------------------------------------------------|
   G           D               C    (a bateria entra aqui)V      
e|-----3-------------2-0-----------|---------------------------------|
B|-------3---3-----3-----3---3-----|------1--------1---------1---1p0-|
G|-0-------0-----2---------2---0---|--------0--------0---------0-----|
D|-0-0---------0---------------0h2-|---2--------2--------2-----------|
A|-2-------------------------------|-3--------3--------3---3---------|
E|-3-------------------------------|---------------------------------|

     G       D       C
G|---4---|---7---|---5---|---5---|
D|---5---|---7---|---5---|---5---|
A|---5---|---5---|---3---|---3---|
E|---3---|-------|-------|-------|

  O Riff acima é tocado duas vezes, e apresenta variações na batida

--------------------------------------------------------------------

    Os Riffs de Guitarra executados durante os versos
    variam durante a música e são difíceis de determinar.
    Então, toque o que você achar q fica melhor, ao invés de
    tentar reproduzir exatamente o que está na música. Estou
    colocando apenas uma sugestão.

e|-3----------2-------2-0-----|---------0-------0-------------------|
B|-3---3--3---3-------3-----0-|-----0h1---1-----------1-------------|
G|-0---0-0----2-----2-----2---|---2---------2-------2---2-----0---0-|
D|-0---0-0----0-----0---------|-2-------------2---2-------0h2---2---|
A|-2--------------------------|-------------------------------------|
E|-3--------------------------|-------------------------------------|
  (Esse trecho parece repetir   (Esse trecho final varia em cada parte
   em todos os acordes G | D                               dos Versos)
   dos versos)

--------------------------------------------------------------------
  
G          D               Am
Mamma take this badge from me
G          D         C
I can't use it anymore
G                 D             Am
It's getting dark, too dark to see
G              D                       C (use o Riff tocado
Feels like I'm knockin' on heaven's door    no fim da Intro)

     G       D       C
G|---4---|---7---|---5---|---5---|
D|---5---|---7---|---5---|---5---|
A|---5---|---5---|---3---|---3---|
E|---3---|-------|-------|-------|
Esse Riff é repetido em todo o Refrão, com variações
na batida

G             D                     C 
Knock, knock, knockin' on heaven's door,Hey, hey, hey, hey, yeah
G             D                     C 
Knock, knock, knockin' on heaven's door
G                  D                     C
Ooh, knock, knock, knockin' on heaven's door, Ooh yeah
G             D                     C 
Knock, knock, knockin' on heaven's door, Hey, hey, hey, hey, yeah     

Solo 1:
e|-------------------------------------------------------------
b|---------------15-------------------15^^-15---13p12-13^^-13--
g|--12-14^-12-14----14^-12-12~------12-------------------------
d|-----------------------------13/14---------------------------
a|-------------------------------------------------------------
E|-------------------------------------------------------------

e|----------------------15-------------15-17^-17^--17^-15------
b|--13p12-13-12----12-13---13-12---/17-------------------------
g|-------------------------------------------------------------
d|--------------14---------------------------------------------
a|-------------------------------------------------------------
E|-------------------------------------------------------------

e|--20^^-20p19-20-19-20^^-20p19-20-19--------------------15----
b|------------------------------------17--15^~~----------------
g|---------------------------------------------14^~~-12~~------
d|-------------------------------------------------------------
a|-------------------------------------------------------------
E|-------------------------------------------------------------

--> Mesmos Riffs do Verso 1 e do Primeiro Refrão

G         D                  Am
Mama, put my guns in the ground
G       D                C
I can't shoot them anymore
G               D                 Am
That cold black cloud is comin' down
G              D                       C
Feels like I'm knockin' on heaven's door

G             D                     C 
Knock, knock, knockin' on heaven's door,Hey, hey, hey, hey, yeah
G             D                     C 
Knock, knock, knockin' on heaven's door
G                  D                     C
Ooh, knock, knock, knockin' on heaven's door, Ooh yeahhh....

Solo 2:
e|--15^-14-14p15-14-12p14----15---15---------------------17/19-
b|------------------------15^--15^--15^-13/12------15/17-------
g|-------------------------------------------14-12-------------
d|-------------------------------------------------------------
a|-------------------------------------------------------------
E|-------------------------------------------------------------

e|--23-22-23-24^-23-22-23-24^-23-22-23-24^-23/22----------
b|-----------------------------------------------19/17-15-
g|--------------------------------------------------------
d|--------------------------------------------------------
a|--------------------------------------------------------
E|--------------------------------------------------------

e|------------------------------------------
b|------------------------------------------
g|--14/16-----------------------------------
d|--------17-16-16p17-16/14-----------------
a|-------------------------15/17-15---------
E|----------------------------------19-15---










Quer fazer uma correção nesta cifra?







    Comentários (0) Postar um Comentário

    Nenhum comentário encontrado. Seja o primeiro!