Cifra da música: Knocking On Heavens Door (Rock in Rio 3) - Guns N' Roses

Esse cifra de Guns N' Roses já foi acessado por 1573 pessoas.

Comente

A música Knocking On Heavens Door (Rock in Rio 3) fez muito sucesso quando foi gravada por Guns N' Roses. Quer conhecer as demais músicas? Conheça as letras das músicas gravadas por Guns N' Roses e aproveite.

Veja também o vídeo da música tocada.


Versão:Rock In Rio III

Afinação(Eb Bb Gb Db Ab Eb)

** em vez de mudar a afinacao da guitarra meio tom abaixo( oque eh
 desconfortavel para o guitarrista iniciante) voce pode toca-la em F# 
que fica igualzinho ao rock in rio. obs.: no solo vc reduz meio tom 
tambem. 
dai: G  -> F#
     D  -> C#
     Am -> G#m 
     C  -> B
**toque com pestana e mais lento que o cd original, coloque um pouco de
 chorus e reverb na parte clean e um overdrive leve com grave na parte
 suja da musica. 



Intro.G D Am G D C
Riff: Robin Fink
  G       D       Am                  G      D      C
E|---3-3----2-2--0-----3~---------------3-3----2-2----------|
B|---3-3----3-3--1-0h1-----1p0----------3-3----3-3--1-------|
G|-0-0-0--2-2-2--2--------------2p0---0-0-0--2-2-2--0-------|
D|-0-0-0--0-0-0--2--------------------0-0-0--0-0-0--2-2p0---|
A|-2------0------0--------------------2------0------3-----3-|
E|-3----------------------------------3---------------------|

G        D                Am
Mama take this badge from me
G       D          C
I can't use it anymore
G            D                Am
It's getting dark too dark to see
G               D                    C
Feels like I'm knockin' on heaven's door

Refrão
G            D                   Am
Knock-knock-knockin' on heaven's door
G            D                   C
Knock-knock-knockin' on heaven's door

G     D                 Am
Mama put my guns in the ground
G         D            C
I can't shoot them anymore
G               D                Am
That cold black cloud is comin' down
G               D                   C
Feels like I'm knockin' on heaven's door

Refrão
G            D                   Am
Knock-knock-knockin' on heaven's door
G            D                   C
Knock-knock-knockin' on heaven's door

Solo.
E|--------------------------------------------12-14-14h15-15-15-14---------|
B|-------12~-------15^--15-13-12-13---------12----------------------15-15^-|
G|-12h14------12~~-----------------12--------------------------------------|
D|-------------------------------------------------------------------------|
A|-------------------------------------------------------------------------|
E|-------------------------------------------------------------------------|

E|--------------------------------------------------------------------------|
B|-15^-15-13-12-13----------------------------------------------------------|
G|-----------------12-------------------------------------------------------|
D|---------------------------12-14^-14^-14--12-14-12-14^--12----12~~--------|
A|----------------------/14----------------------------------14-------------|
E|--------------------------------------------------------------------------|

E|----------------------------------------|
B|-12-13-15-15^-15^-13-13-12--12-13-------|
G|-----------------------------------12~~-|
D|----------------------------------------|
A|----------------------------------------|
E|----------------------------------------|

(até o final)
G            D                   Am
Knock-knock-knockin' on heaven's door
G            D                   C
Knock-knock-knockin' on heaven's door

Transcrita por:Gabriel Ysllu Chagas
Obs: Eu não sei se o solo esta muito
certo, é pq fazia muito tempo que não tocava essa música
na minha banda, aí eu tive que lembrar à força.
Mas oque vale é a intensão!!!





Quer fazer uma correção nesta cifra?







    Comentários (0) Postar um Comentário

    Nenhum comentário encontrado. Seja o primeiro!