Cifra da música: Ain't It Fun - Guns N' Roses

Esse cifra de Guns N' Roses já foi acessado por 990 pessoas.

Comente

A música Ain't It Fun fez muito sucesso quando foi gravada por Guns N' Roses. Quer conhecer a letra dela? Veja a letra de Ain't It Fun e cante.

Veja também o vídeo da música tocada.


Transcrito por: Leonardo Eloi Mathias (KIKO)

Introdução: (Bm D A G Bm)4x G Bm G Bm D A Bm G D A
                                     Bm D A Bm G D A Bm

|------------------------------------------------------------------------|
|---------------------------------------------------------10--12--10/12^^|
|-------------------------2/4^^^^^^------------9------11-----------------|
|------------------2--4-----------------9--12-----12---------------------|
|---2~~--2--4--5---------------------------------------------------------|
|------------------------------------------------------------------------|

|-----10--12fb12--10--12--10---------10b---------------------------------|
|-12--------------------------12----------12--10/12----12--10------------|
|--------------------------------------------------------------11--9b----|
|------------------------------------------------------------------------|
|------------------------------------------------------------------------|
|------------------------------------------------------------------------|

|------------------------------------------------------------------------|
|---------------------12-------------------------------------------------|
|-----9------/11--14------14--9h10p9------9------10p9--------------------|
|-12-----12---------------------------12-----12--------12--9--12p11------|
|------------------------------------------------------------------12/14-|
|------------------------------------------------------------------------|

|------------------------------------------------------------------------|
|------------------------------------------------------------------------|
|-------9------/11----11--9------9--------9------11--11--9------9--------|
|9--12-----12----------------12-----12-------12-------------12-----12--9-|
|------------------------------------------------------------------------|
|------------------------------------------------------------------------|

|-----------10-------------------------9---------------------------------|
|--------------------------------------10------------------------10-10---|
|-9------9fb--------9--------9------9fb--------9--------------9fb11-11---|
|----12---------12-----12-------12---------12-----9----9--12-------------|
|------------------------------------------------------------------------|
|------------------------------------------------------------------------|

|------------------------------------------------------------------------|
|------------------------------------------------------------------------|
|-----9------9------10b--9------9----------------------------------------|
|-12-----12-----12----------12-----11--12--9--11------9------------------|
|-------------------------------------------------12---------------------|
|------------------------------------------------------------------------|

Bm                       D      A          G Bm
 Ain't it fun when you're always on the run?
|-------------|                      
|-------------|
|-------------|
|----X--9^^---|
|-------9^^---|
|-------------|
                       D              
 Ain't it fun when your friends despise
A           G    Bm
 What you become?
|-------------|
|-------------|
|---------7^^-|
|-X-9-7-9-7^^-|
|---9-7-9-----|
|-------------|
G                      Bm         
 Ain't it fun when you get so high?
G                           Bm
 With that you just can't come?
|---------|
|---------|
|-7-------|
|---7-9^^-|
|---------|
|---------|
D        A            Bm 
 Ain't fun when you know? 
       G             D
 That you gonna die young?

Such Fun! 9x
guitarra Solo:
|---------------|
|---------------|
|---------------|
|---------------|
|-9/7/9/7/9/7/9-|   
|-7/5/7/5/7/5/7-|

guitarra Base:
|----------------------------------------------------------------|
|*--------------------------------------------------------------*|
|----------------------------------------------------------------|
|----------------------------------------------------------------|  
|*-5---5-5---5-5-5---7---7-7---7-7-7----9--7---9-7-9---9--7--9--*|
|--3---3-3---3-3-3---5---5-5---5-5-5----7--5---7-5-7---7--5--7---|
Such!!
|----------------|----------|
|---10-----------|----------|
|---9b---7-9-7-9-|-9-7------|
|-9^-------------|------9^^-|
|----------------|----------|
|----------------|----------| 
Bm                       D             A           G  
 Ain't it fun when you're talking care of number one?
|----------------|
|----------------|
|-*-7-9-7-9b-----|
|-*----------9^^^|
|----------------|
|----------------|
Bm                    D              A            G Bm
 Ain't it fun when you feel like just got get a gun?
|----------------------|
|-------------10-12^^^-|
|-7-9-11-7-11----------|
|----------------------|
|----------------------|
|----------------------|
G                     Bm  
 Ain't it fun when you just
       G                       Bm
 can't seem to find your tongue?
|-10---------|
|----10h12~~-|
|------------|
|------------|
|------------|
|------------|
D            A
 Cause you stuck it too deep
Bm      G                    D
 into something that really stung
|-14-14p12p10-7-|
|---------------|
|---------------|
|---------------|
|---------------|
|---------------|
It's such fun!

guitarra Solo:
|---------------|
|---------------|
|---------------|
|---------------|
|-9/7/9/7/9/7/9-|   
|-7/5/7/5/7/5/7-|

 guitarra Base:
|------------------------------------------------------------------|
|------------------------------------------------------------------|
|------------------------------------------------------------------|
|------------------------------------------------------------------|
|-5--5-5--5-5-5--7--7-7--7-7-7--12--12-12--12-12-12--9--9-9--9-9-9-|
|-3--3-3--3-3-3--5--5-5--5-5-5--10--10-10--10-10-10--7--7-7--7-7-7-|
        G                     A
so you come up to me to spit right in my face,
        D                      Bm
I didn't even feel, it was such a disgrace
   G                           A
I punched my fist right through the glass
        D                  Bm
I didn't even feel, it happened so fast!

It's such fun! 12x

|-12b---12—12—12—12—12—12—12—12—12—12—12—12---12-12r-----------------|
|----------------------------------------------------15-15b-b--12-12-|
|--------------------------------------------------------------------|
|--------------------------------------------------------------------|
|--------------------------------------------------------------------|
|--------------------------------------------------------------------|

|-------14-17b-14-17-----|----------------------------------|
|-12-15--------------17b-|17-15-15p14-15p14---12-14b-p12-12-|
|------------------------|----------------------------------|  
|------------------------|----------------------------------|
|------------------------|----------------------------------|
|------------------------|----------------------------------|
Bm                      D       A             G
 Ain't it fun when you tell her she's just a cunt?
|-7---------------------7-|
|---10-7---------7-10-7---|
|--------9-9-9b-----------|
|-------------------------|
|-------------------------|
|-------------------------|
Bm                          D         A       G Bm
  Ain't it fun when she spirits leaves you a bun?
|------7-9-7--------------|
|-7-10-------10-12--12b---|
|-------------------------|
|-------------------------|
|-------------------------|
|-------------------------|

G                       Bm 
 Ain't it fun when you broken up every band
G                   Bm
 That you ever begun?
|--------------------------------------|
|--------------------------------------|
|-7-9b-7---7---------------------------|
|--------9---9--9-11-9-11-9-7h9-7-9-7--|
|--------------------------------------|
|--------------------------------------|
D          A             Bm 
 Ain't it fun when you know? 
        G               D
 That you're gonna die young?
|--------------------------------------|
|--------------------------------------|
|--------------------------------------|
|-11-9-11b---11-9-11b---11-9-11-9-7-9--|
|--------------------------------------|
|--------------------------------------|

It's such fun! 14x
guitarra Solo:
|---------------|
|---------------|
|---------------|
|---------------|
|-9/7/9/7/9/7/9-|   
|-7/5/7/5/7/5/7-|

guitarra Base:
|----------------------------------------------------------------|
|*--------------------------------------------------------------*|
|----------------------------------------------------------------|
|----------------------------------------------------------------|  
|*-5---5-5---5-5-5---7---7-7---7-7-7----9--7---9-7-9---9--7--9--*|
|--3---3-3---3-3-3---5---5-5---5-5-5----7--5---7-5-7---7--5--7---|

|-------------------------|
|-12^^^^^^^^^^^^^^^^^^^^^-|
|--------------11^^^^^^^^-|
|-------------------------|
|-------------------------|
|-------------------------|

 Final:
|----------10-9-----------------------------------------|
|----10-12------12-10---------------------------12------|
|-11------------------11---7-9-7----------------11------|
|--------------------------------9-7-9-7--------9-------|
|----------------------------------------9-7------------|
|-------------------------------------------------------|


Quer fazer uma correção nesta cifra?







    Comentários (0) Postar um Comentário

    Nenhum comentário encontrado. Seja o primeiro!