Cifra da música: You Ain`t The First - Guns N' Roses

Esse cifra de Guns N' Roses já foi acessado por 748 pessoas.

Comente

A música You Ain`t The First fez muito sucesso quando foi gravada por Guns N' Roses. Quer conhecer a letra dela? Veja a letra de You Ain`t The First e cante.

Veja também o vídeo da música tocada.


Tabulature by Bruno Alves dos Santos Oliveira
[email protected]           Um Abra;co pra galera de Poços de Caldas                                                                        

                                                 

Tune all strings 1/2 step down.

CHORDS:

     E                  A            G#         A(5th)           B                 F#m
022100         x02220     466544     577655      799877           244222

INTRO:
  E                                 A                                  E
|----------------------------------------------------------------0-----2-----0---
|-------------12----14------9------------2-----0--------2----------------------
|----13---------------------------------------------------------------------------
|----------------------------------------------------------------------------------
|----------------------------------------------------------------------------------
|----------------------------------------------------------------------------------
  A                                 E                                A           
|---0------------------------------------------------------------------------------
|----------------------------------------12----14-------9------------2-----0----
|--------------------------------13------------------------------------------------
|-----------------------------------------------------------------------------------
|-----------------------------------------------------------------------------------
|-----------------------------------------------------------------------------------
    E                               A                               E
|-----------0-----2----------0-------------------------9---7----------------------
|---2------------------------------------------------------------9--7----9--7-----
|------------------------------------------------------------------------------------
|------------------------------------------------------------------------------------
|------------------------------------------------------------------------------------
|------------------------------------------------------------------------------------
    A                                  E                              A 
|-----------------0--------------------0-----2-----------0---------------9---------
|----9----7---------------------2---------------------------------------------------
|------------------------------------------------------------------------------------
|-------------------------------------------------------------------------------------
|-------------------------------------------------------------------------------------
|-------------------------------------------------------------------------------------
  E                                       A                             E                             
|--9--7--------------------------------------0--------------------0------2----------
|---------9--7---9--7------------9----7------------------2-------------------------
|--------------------------------------------------------------------------------------
|--------------------------------------------------------------------------------------
|--------------------------------------------------------------------------------------
|--------------------------------------------------------------------------------------
   
|-----0--------------------------2------4------------------0--------------------------
|---------------------------------------------------------------------------------------
|---------------------------------------------------------------------------------------
|---------------------------------------------------------------------------------------
|---------------------------------------------------------------------------------------
|---------------------------------------------------------------------------------------

|-----------------------------12-------------------------------------------------------
|-------------11----12---------------------------11----12----11-------10----------
|---------------------------------------------------------------------------------------
|---------------------------------------------------------------------------------------
|---------------------------------------------------------------------------------------
|---------------------------------------------------------------------------------------

|-----------------------------------------0---------------------------------------------
|---------14-----12---------------------------------------14----12-------------------
|------------------------13-------------------------------------------------11---------
|----------------------------------------------------------------------------------------
|----------------------------------------------------------------------------------------
|----------------------------------------------------------------------------------------

|---------------------------------|
|---------------------------------|
|----13--------------------------|
|---------------------------------|
|---------------------------------|
|---------------------------------|
 Two      Three      and  So,

CHORUS:

   E               G#           A(5th)            B
Good-bye to you girl.   So long, fare-well

  E                   G#                 A(5th)         B  
I can't hear ya cryin'    Your jivin's been hell

 E                      G#                   A(5th)            E
So look for me walkin'   Down your street at night

 E                     G#       A(5th)              B
I'll be in with another   Deep down in-side   

 A(5th) G#    F#m    E
Deep down   in  -  side 



-- [ acordes ] --

G# = 466544	E = 022100	A5 = 577xx5	
B = 224442	F#m = 244222


Quer fazer uma correção nesta cifra?







    Comentários (0) Postar um Comentário

    Nenhum comentário encontrado. Seja o primeiro!