Cifra da música: Welcome To The Jungle - Guns N' Roses

Esse cifra de Guns N' Roses já foi acessado por 1063 pessoas.

Comente

A música Welcome To The Jungle fez muito sucesso quando foi gravada por Guns N' Roses. Quer conhecer a letra dela? Veja a letra de Welcome To The Jungle e cante.

Veja também o vídeo da música tocada.


Tuned down half a step: 
Tempo=104

Intro: Gtr.1 w/delay (see recomendations at bootom):
E|-----------------------------------------------------------|
B|----0-------0--------0---------0---------------------------|
G|--4---4--2-----2-------------------------------------------|
D|------------------4-----4---2-----2--0---------------------|
A|-----------------------------------------4-----------------|
E|-----------------------------------------------------------|
  ----repeat this 4 times----/
 

                                                               



Gtr.3:2x                                                          E|-----------------------------------------------|  /durante o riff 1B|----------------------------------------------|  a 2º gtr faz B A
G|------------7-9-9fb---7qb----------------------|  /G Em/
D|---7h9--9-------------------7h9--9s2-----------|  Na 2ºvez que o riff
A|-----------------------------------------------|  /tocar a 2ºgtr faz 
E|-----------------------------------------------|  B Em G C A
                    


E-----------------------4--5--6--7-------------------
B-----------------3--5---------------------------------
G------------2--4--------------------------------------
D-------2--4---------------------------------------------
A--2--4-----------------------------------------------------
E----------------------------------------------------------

Toque isto: A G A G F#m E
Depois isto:E D E D C C#

Ref:C  D E
E---------------------------------------
B--------------------------------------
G-----------------------------------------
D-----------------------------------------
A---------7-7-5------------------------------
E---------------6-5-3-0-----------------------


Gtr.3: play an A barrechord over main riff                 

Gtr.1:                                                                     
E|--------------------x--5--------------------|-------------------------|  /
B|--------------------------------------------|-------------------------|  
G|---2-----------x----------------------------|--2-x-x-----2-2--0-------|  /
D|---2-----------x----------------------------|--2-x-x-----2-2--0-------|   
A|---0-----0-----x------------------3p0-------|--0-x-x-----0-0--------0-|  /
E|----------------------------------------2---|--------3hb--------3-2---|  
                                                                           / Play this
Gtr.2:                                                                      one time
E|--------------------------------------------|-------------------------|  /
B|--------------------------------------------|-------------------------|  
G|-7fb5-----7--5hb----------------------------|-------------------------|  /
D|-------7---------7-5------------------------|-------------------------|  
A|----------------------7--6--53--5--3-------|-0-0-----0-0-------------|  /
E|---------------------------------------5--3-|-----3hb-----3hb--2--0-0-|  
                                                                           /
Gtr.3: play an A barrechord over main riff                                 

In the part 'We are the people that can find...' play:

Gtr.1:    P.M.     P.M.                       Palm mute    
E|--------------------------|---------------------------|  /
B|--------------------------|---------------------------|  
G|--9--9--7-x-9--9----------|--2-x-x-----2-2--0---------|  /
D|--9--9--7-x-9--9--7--6--4-|--2-x-x-----2-2--0---------|   
A|--7--7--5-x-7--7--5--4--2-|--0-x-x-----0-0----------0-|  /
E|--------------------------|--------3hb--------3--2----|  
                                                           /
Gtr.2:                                                     
E|--------------------------|---------------------------|  /
B|--------------------------|---------------------------|  
G|--------------------------|---------------------------|  /
D|--------------------------|---------------------------|  
A|-7--7--5--7--7--7-5--4--2-|-7--7--5--7--7--7--5--4--2-|  /
E|-5--5--3--5--5--5-3--2--0-|-5--5--3--5--5--5--3--2--0-|  
                                                           /
Gtr.3: play an A barrechord over main riff                 

chorus
 Solo 1 (w/ad lib vocals):
|------------------------------------------------------------------------|
|----------------------------------12-----------15~--------------15--15~~|
|--12/13-------------13---13~(13)--12--13-x-x---16~--12/11-------13--13~~|
|--11/12-----(12)-14-14---14~(14)------14-x-x--------13/12---------------|
|------------------------------------------------------------------------|
|---------0------------------------------------------------0--0----------|

|--------------------------15--15--------------19fb----19-18-17fb--15-16-|
|~~~(15)p12---14/15--------15--15-----------17---------------------------|
|~~~(13)------15/16----------------6/0--/18------------------------------|
|------------------------------------------------------------------------|
|------------------------------------------------------------------------|
|------------------------------------------------------------------------|

|------------------------------------------------------------------------|
|-15~---(15)---15fb--(15)-15p12-----------------------------------------|
|---------------------------------14fb--14hb(14)p12--14-12---------------|
|-----------------------------------------------------------14-14--------|
|-----------------------------------------------------------------13-13--|
|------------------------------------------------------------------------|

|--------------------------A.H.------------------------------------------|
|------------------------------------------------------------------------|
|--------------------------8hb-------------------------------------------|
|----------------------------------------------11-----------------------|
|-12fb-(12)p10-----------------------------------------------------------|
|---------------12-------------------------------------------------------|

 After chorus come this:
   D          G                    D                G
|-------------3-----(3)-------------------------------------------------|
|--7----------3-----(3)---6hb-----7---8p7----------12--13p12----------8-|
|--7----------4-----(4)---4hb-----7---7------------12---------75--5----|
|--7----5-----5-----(5)-----------7---7----7---10--12-------------------|
|--5----3-----5-----(5)-----------5-------------8--10-------------------|
|-------------3-----(3)-------------------------------------------------|

 G                     C                        G                 C
     And when...     high    you never              ever want to come down
|------------------------------------------------------------------------|
|-7-------------------12---13p12---------107---7------------------------|
|---7-----------------12------------------------7------------------------|
|-----7--6--7----10---12---------12p10---107---7-----------------10-----|
|-----------------8---10-------------------------------------------8-----|
|------------------------------------------------------------------------|

        0     C    0     C     0     C                  E (hold chord)
        so  down   so   down   so  down              Yeah!

 Pre-solo:
|------------------------------------------------------------------------|
|------------------------------------------------------------------------|
|-------6/7-------------9-------9-----9---6/7------------------12---12---|
|-------5/6-------------9-------9-----9---5/6------------------12---12---|
|------------------------------------------------------------------------|
|---0---------0----0---------0-------------------0-------0---------------|

|------------------------------------------------------------------------|
|------------------------------------------------------------------------|
|-------6/7-------------9-------9-----9---6/7------------------12---12---|
|-------5/6-------------9-------9-----9---5/6------------------12---12---|
|------------------------------------------------------------------------|
|---0---------0----0---------0-------------------0-------0---------------|

 Solo 2:
|--------------------------------------------------------------------------|
|--------------------------------------------------------------------------|
|-----------------------------------------------9hb-----------11fb--(11)---|
|---------------------------------9-9hb-11-(11)---------11-----------------|
|--------7----9fb--(9)----7-7-9/11-----------------------------------------|
|--9--------9--------------------------------------------------------------|

|----------------------------------------------------------------------0---|
|-------------------------------12-(12)-------12--------------------5--5---|
|--(11)----11fb(11)p9-----9hb---11-(11)-------11-(11)p9------------6-6-----|
|----------------------11-------------------------------11-9-(9)/6---------|
|--------------------------------------------------------------------------|
|--------------------------------------------------------------------------|

|--(0)--0--0--0------------------------------------------------------------|
|--(5)--3--2--0---2hb--2hb--0----0----0--(0)--0--0--0--0--2--4-------------|
|-----------------2hb--2hb--0--1-1--2-4--(4)--4--2--2--1--2--4-------------|
|---------------------------------------------------------4--4--2fb(2)p0-2-|
|--------------------------------------------------------------------------|
|--------------------------------------------------------------------------|

|--------------------------------------------------------------------------|
|---------15-15fb-(15)-15fb(15)--------------------------------1412-------|
|-/4----------------------------14fb-14fb--14fb(14)p12----------------6hb--|
|-/4--/12-----------------------------------------------14-12--1412-------|
|--------------------------------------------------------------------------|
|--------------------------------------------------------------------------|

|--------------------------------------------------------------------------|
|--------------------------------------------------------------------------|
|--(6)--4------------------------------------------------------------------|
|----------6hb------4------------------------------------------------------|
|---------------------4-(4)--2---------------------------------------------|
|------------------------------4hb----0--2----------------------------(2)--|
Acabando Notas abafadas:F#m G/
G G# G Gb B Gb B
Reff::::
termina em E 

      

-Recomendation by Nicolas Manel-
how to get the sound of the intro:

* set your delay repeats to 4-5 
* set your delay time to follow the tempo (around 2-3 ms)
* plug your delay pedal BEFORE your disortion pedal
* put your distortion at the max
* mute all the strings with your right hand
* put your hand on the fretboard and loop this tablature fast:

Don't be afraid of the speed, you just need to find the best way for you
to attack strings with your pick up or down.

***********************************************************************************

Welcome to The Jungle - Guns N' Roses


Intro: (E) B A G E B A E D A B (A)


   A
   Welcome to the jungle
   We got fun'n'games
   We got everything you want
   Honey we know the names

              E
   We are the people that can find
   Whatever you may need
   If you got the money honey
   We got your disease

           C
   In the jungle
                   D
   Welcome to the jungle
                             E
   Watch it bring you to your knees, knees  
   I wanna watch you bleed

    A
   Welcome to the jungle
   We take it day by day
   If you want it you're gonna bleed
   But it's the price you pay

                 E
   And you're a very sexy girl
   That's very hard to please
   You can taste the bright lights
   But you won't get them for free

           C
   In the jungle
                   D
   Welcome to the jungle
           E
   Fell my, my, my serpentine
     B                          E
   I, I wanna hear your scream

    A
   Welcome to the jungle
   It gets worse here everyday
   Ya learn ta live like an animal
   In the jungle where we play

                 E
   If you got a hunger for what you see
   You'll take it eventually
   You can have anything you want
   But you better not take it from me

           C
   In the jungle
                   D
   Welcome to the jungle
                             E
   Watch it bring you to your knees, kness
                           D G D G
   I wanna watch you bleed


  D                    G
   And when you're high you never
  D                      G
   Ever want to come down
   F   G    F   G    F   A     E  E7/9 E E7/9 C#m B C#m B C#m 
   So down, so down, so down, yeah         B E B E B A F# B E  

  E
   You know where you are
   You're in the jungle, baby

                   F# F F# G A G# A A#
   You're gonna die

           C
   In the jungle
                   D
   Welcome to the jungle
                             E
   Watch it bring you to your knees, knees
           C
   In the jungle
                   D
   Welcome to the jungle
           E
   Fell my, my, my serpentine
           C
   In the jungle
                   D
   Welcome to the jungle
                             E
   Watch it bring you to your knees, knees
           C
   In the jungle
                   D
   Welcome to the jungle
                        E
   Watch it bring to you
       D    Bb    A  G E A  G E  E7/9
   It's gonna bring you down, ha!


________________________________________________________________


Quer fazer uma correção nesta cifra?







    Comentários (0) Postar um Comentário

    Nenhum comentário encontrado. Seja o primeiro!