Cifra da música: Reckless Life - Guns N' Roses

Esse cifra de Guns N' Roses já foi acessado por 579 pessoas.

Comente

A música Reckless Life fez muito sucesso quando foi gravada por Guns N' Roses. Quer conhecer a letra dela? Veja a letra de Reckless Life e cante.

Veja também o vídeo da música tocada.


Tabbed by:   Greg Hebda
             [email protected]

Fast Rock = 196. Tuning 1/2 step down.

  Rhy. Fig 1
||------------------------|-------|-2-----|------------------|
||------------------------|-------|-3-----|-5--x--5----------|
||*----------------2-2-2--|--%----|-2-----|-5--x--5----------|
||*----------------2-2-2--|-------|-0-----|-5--x--5----------|
||--3qb--0---------0-0-0--|-------|-------|-3--x--3------0-0-|
||---------3fb------------|-------|-------|------------------|

	  1/4	   full		   end rhy. Fig 1
|------------------------|-------|-3-----|-2--x--2----------|
|------------------------|-------|-3-----|-3--x--3----------|
|-----------------2-2-2--|--%----|-0-----|-2--x--2----------|
|-----------------2-2-2--|-------|-0-----|-0--x--0----------|
|--3qb--0---------0-0-0--|-------|-X-----|--------------0-0-|
|---------3fb------------|-------|-3-----|------------------|

			    D		  A5			D5
|-------------------|-2--------|----|---------|-----------------------|
|------7 measures---|-3--------|----|---------|-----------------------|
|---|_____________|-|-2--------|----|---------|-----------------------|
|------Rhy. Fig. 1--|-0--------|--hold for 2--|-----------------------|
|-------------------|----------|----|-measures|-----------------------|
|-------------------|----------|----|---------|-----------------------|
1. I'm____ reckless___ and feelin' no
2. See additional lyrics

C5	   B5  B5					 G5	    D5
|-----------|-----------------------------|--------|------------------|
|-----------|-----------------------------|--------|------------------|
|-----------|-----------------------------|--------|------------------|
|-----------|-----------------------------|--------|------------------|
|-----------|-----------------------------|--------|------------------|
|-----------|-----------------------------|--------|------------------|
pain.   You  know I've got no need to con- trol.__

 A5					    D5			C5
|---------------------|---------|--------------------|----------------|
|---------------------|---------|--------------------|----------------|
|--------------hold for 2-------|--------------------|----------------|
|------------------measures-----|--------------------|----------------|
|---------------------|---------|--------------------|----------------|
|---------------------|---------|--------------------|----------------|
 Li-vin' with_ the dan-ger,  I'm  always on the edge_ now          with

  A5						G5		D5            D5 C5
|----------------|----------------|----------|------------------------|
|----------------|----------------|----------|------------------------|
|------------hold for 2-----------|----------|------------------------|
|--------------measures-----------|----------|------------------------|
|----------------|----------------|----------|------------------------|
|----------------|----------------|----------|------------------------|
 mil-lion dol-lar  vi-sions that I  hold.____

  B5				    A5   B5   C5				 D5(type 2) C5
|------------------|-----------------|----------------|---------------|
|------------------|-----------------|----------------|---------------|
|---------------hold the-------------|------------hold the------------|
|-----------------chord--------------|---------------chord------------|
|------------------|-----------------|----------------|---------------|
|------------------|-----------------|----------------|---------------|
 Li-vin'  like this nev-er  ev-er tore_ my life a-part_

 B5				  A5  B5	   C5		   D5(type 2)
|------------------|------------------|-----------|------------------||
|------------------|------------------|-----------|----first-time----||
|--------------hold the---------------|-----------|----repeat-to----*||
|-----------------chord---------------|-----------|----beginning----*||
|------------------|------------------|-----------|------------------||
|------------------|------------------|-----------|------------------||
 I know how to main- tain and you know__ I know my part

Do this the second time:
 D5(type 2)		D5			   C5	   G5  C5
|----------------|----------|---------|-----|-------------------------|
|----------------|----------|---------|-----|-------------------------|
|----------------|------hold the------|-----|-------------------------|
|----------------|--------chord-------|-----|-------------------------|
|----------------|----------|---------|-----|-------------------------|
|----------------|----------|---------|-----|-------------------------|
 heart!  I lead a reck   -      less   life,       and I 

  D5				   C5	   G5  C5			
|---------------|---------|-----|-------------------|
|---------------|---------|-----|-------------------|
|---------hold the -------|-----|-------------------|
|-------------chord-------|-----|-------------------|
|---------------|---------|-----|-------------------|
|---------------|---------|-----|-------------------|
  don't   need   your  ad- vice	    and you know___

 D5			 C5     G5   C5  G5  C5 G5
|---|-------------|--------------------------|
|---|-------------|--------------------------|
|--hold ----------|--------------------------|
|---chord---------|--------------------------|
|---|-------------|--------------------------|
|---|-------------|--------------------------|
 __  its my on-ly  vice.

Solo 1
  B5								  A5    B5 
        (w/ trem.bar)
|---------------------------|-16-17-19-17h19p17-16h17p16h17|
|---19fb~~~~~---------------|------------------------------|
|---------------------------|------------------------------|
|---------------------------|------------------------------|
|---------------------------|------------------------------|
|---------------------------|------------------------------|
sssssssssssllllllllllaaaaaaaaaaaaassssssssssssshhhhhhhhhhhhhhh
										    G5  A5
     A5     D5                          A5
|(17)p16---16--------------------------|------------------------------|
|------------19p18-19p18p17-18-17h18p17|s16-17-16h17p16----16-16fb----|
|--------------------------------------|----------------19------------|
|--------------------------------------|------------------------------|
|--------------------------------------|------------------------------|
|--------------------------------------|------------------------------|

   B5               A5   B5                       A5
			trem.bar
|(hold bend)-19--------|(hold)------14---------------14-|
|-----(16)------r-16hb-|---------------16r-(16)s17fb----|
|----------------------|--------------------------------|
|----------------------|--------------------------------|
|----------------------|--------------------------------|
|----------------------|--------------------------------|

             G5                A5  G   A5  G  A5  B5
                              trem. Bar		         trem.bar
|--------------14------------|------------s10h11|h12fb-----~~~~-------|
|-17r-----17fb----17r---(17)~|~~~~~~~~~~--------|------------------0--|
|----------------------------|------------------|---(slow-bend)-------|
|----------------------------|------------------|---------------------|
|----------------------------|------------------|---------------------|
|----------------------------|------------------|---------------------|
sssssssssssssslllllllllllllaaaaaaaaaaaaaaassssssssssssssshhhhhhhhhhhhhh

                             A5         B5
|-16-16--14-13h14p13-14p13s12h13p12s11h12p11|
|-------------------------------------------|
|-------------------------------------------|
|-------------------------------------------|
|-------------------------------------------|
|-------------------------------------------|
ssssssssssssssllllllllllllllaaaaaaaaaaaassssssssssssssshhhhhhhhhhhhhhh

  A5     D5                     A5            G      A5
|12-10p9-10-7----7h9p7---------|-7------------------------------------|
|-------------10------10p9-9h10|---7-9-10-7---7h9p7---7---------------|
|------------------------------|------------9-------9---9fb-----------|
|------------------------------|--------------------------------------|
|------------------------------|--------------------------------------|
|------------------------------|--------------------------------------|
	 
  B5                    A5  B5               A5        G5  trem. bar
|-------------------------|---------------------|------10~~~~~~~~~~~~~|
|-------------------------|---------------------|---------------------|
|-(9)-9fb-----r--9p7qb---9|(9)---7qb------7hb---|----7----------------|
|----------------------9--|----9-------9-----x-x|-9-------------------|
|-------------------------|--------------------x|---------------------|
|-------------------------|---------------------|---------------------|

  A     A#    B   C            B5      C#  C#sus4   C#5
	  	            solo 2
|(10)~~~~----------------||-------------9-----------------------------|
|--------------------12fb||---(12)fb------12p9-12fb--9----------------|
|--------0-dive----------||----------------------------12p9-----------|
|------------------------||---------------------------------11fb------|
|------------------------||-------------------------------------------|
|------------------------||-------------------------------------------|
* Dive Trem. bar (4 1/2)
sssssssssssssslllllllllllllllaaaaaaaaaaaasssssssssssshhhhhhhhhhhh

B5 C#        C#sus4 C#5                  E5
|9----------12-----9-------9-------|9---------------------------9-|
|-12p9-12fb----12p9-12p9h12-12p9h12|-12p9-12p9h12-9h12p9-12p9h12--|
|----------------------------------|------------------------------|
|----------------------------------|------------------------------|
|----------------------------------|------------------------------|
|----------------------------------|------------------------------|

   B5                 C#5   C#sus4 C#5 
|------12fb------12|---11--12-9h11p9----9-------9------|
|-12p9-------------|-----------------12---12fb----12p9-|
|------------------|-----------------------------------|
|------------------|-----------------------------------|
|------------------|-----------------------------------|
|------------------|-----------------------------------|

                         B5                      A5
|----------------------------------------|----------------------------|
|-------9h12p9----12p9-12----------------|--------------A.H.----------|
|-11h12--------12--------11fb---r--(11)p9|11~~~~~~9~~~~--11--9fb------|
|----------------------------------------|----------------------------|
|----------------------------------------|----------------------------|
|----------------------------------------|----------------------------|

  B5                    C#5            B5     C#5 C#sus4    C#5
|-------------------------------------|-------------------------------|
|-----------------------**12----------|(12)~~~-11p9h12***--(12)p11p9--|
|(9)----------(9)s*-------------------|-------------------------------|
|-------------------------------------|-------------------------------|
|-------------------------------------|-------------------------------|
|-------------------------------------|-------------------------------|
* trem. Bar 1 1/2~~~    ** trem. Bar 1 1/2~~~    *** trem. Bar 1 1/2~~~

 B5  C#5   C#sus4          C#5           E5     
|--------------------------------|-----------9------------------------|
|(9)s12-----------(12)s*----12--p|0-12**-------12-9-------------------|
|--------------------------------|------------------11fb--r-(11)p9----|
|--------------------------------|------------------------------------|
|--------------------------------|------------------------------------|
|--------------------------------|------------------------------------|
* trem. Bar 1 1/2~~~                ** trem. Bar 1 1/2~~~

   B5
|--------------------------------------|
|--------9---------------------9-------|
|--11fb----11fb--r(11)p9-11qb----9qb---|
|------------------------------------11|
|--------------------------------------|
|--------------------------------------|
sssssssssssslllllllllllllllllaaaaaaaaaaaaaasssssssssshhhhhhhhhhhh

  C#5  C#sus4  C#5                                     B5
|-------------------------------|--------------------------|
|-------------------------------|--------------------------|
|--11-9qb-----------------------|--------------------------|
|--11-9qb--11--9----------------|--------------------------|
|----------------11s9--7-9h10h11|-9-7qb------9----7----7---|
|-------------------------------|--------9-----------------|
ssssssssssssssssllllllllllllllaaaaaaaaaaaaasssssssssshhhhhhhhhhh

  C#5          C5         B5
|-------------------------------------|			
|s-12-12-12-s-12--12--12--------------|
|s/13-13-13-s/13--13--13-13s14--------|
|-/----------/------------------------|
|-------------------------------------|
|-------------------------------------|

    Bb5        A5
|---------------------------|
|-13-------14---------------|
|----14s15----14s15s--------|
|-------------15s16s--------|
|---------------------------|
|---------------------------|
ssssssssssssllllllllllllaaaaaaaaassssssssshhhhhhhhhhhh

  D5				  C5        G5   C5
|--------------|---------|---------|---------------|
|--------------|---------|---------|---------------|
|-----------hold chord---|---------|---------------|
|--------------|---------|---------|---------------|
|--------------|---------|---------|---------------|
|--------------|---------|---------|---------------|
  reck       -    less__  life,____    I    lead a 

 D5				 C5      G5    C5
|-------|---------------|------|----------------|
|-------|---------------|------|----------------|
|----hold chord---------|------|----------------|
|-------|---------------|------|----------------|
|-------|---------------|------|----------------|
|-------|---------------|------|----------------|
  reck -       less life!___		I    lead a

 D5						  C5
|------------------|----------------|----------|----------------------|
|------------------|----------------|----------|----------------------|
|--------------hold chord-----------|----------|--rests---------------|
|------------------|----------------|----------|----------------------|
|------------------|----------------|----------|----------------------|
|------------------|----------------|----------|----------------------|
  ray   -   ay  -    eck   -  less    life,		  and you know__

  D5				   C5 w/
|---------|---------------|-------------------------------------------|
|---------|---------------|-------------------------------------------|
|-----hold chord----------|-----------------------------------------2-|
|---------|---------------|-----------------------------------------2-|
|---------|---------------|-----------------------------------------0-|
|---------|---------------|15s--------------------------------------0-|
 _________  it's my on-ly...  (and pick 7 sets of 8th note triplets)

D5				  C5        G5   C5
|--------------|---------|---------|---------------|
|--------------|---------|---------|---------------|
|-----------hold chord---|---------|---------------|
|--------------|---------|---------|---------------|
|--------------|---------|---------|---------------|
|--------------|---------|---------|---------------|
  reck       -    less__  life,____    I    lead a 

 D5				 C5      G5    C5
|-------|---------------|------|----------------|
|-------|---------------|------|----------------|
|----hold chord---------|------|----------------|
|-------|---------------|------|----------------|
|-------|---------------|------|----------------|
|-------|---------------|------|----------------|
  reck -       less life!___		I    lead a

 D5						  C5
|------------------|----------------|----------|----------------------|
|------------------|----------------|----------|----------------------|
|--------------hold chord-----------|----------|--rests---------------|
|------------------|----------------|----------|----------------------|
|------------------|----------------|----------|----------------------|
|------------------|----------------|----------|----------------------|
  ray   -   ay  -    eck   -  less    life,		  and you know__

  D5				  C5  G5  C5  G5 C5 G5  C5  G5 C5
|-------|----------------|----------|----------|----------|
|-------|----------------|----------|----------|----------|
|---hold chord-----------|----------|----------|----------|
|-------|----------------|----------|----------|----------|
|-------|----------------|----------|----------|----------|
|-------|----------------|----------|----------|----------|
 _______  it's my on-ly...

 G5  C5  G5   C5  G5  C5    G5  C5  G5  D5 w/fill         D5sl
|-----------|------------|-------------|----------------|------------|
|-----------|------------|-------------|----------------|-------------|
|-----------|------------|-------------|----------------|-------------|
|-----------|------------|-------------|----------------|-------------|
|-----------|------------|-------------|----------------|-------------|
|-----------|------------|-------------|----------------|-------------|
	   Hey, hey!__________________________________

Fill for end:
|------------10----------------------------------------|--------------|
|--13fb---------13p10----------------------------------|13------------|
|---------------------12fb-r(12)p10--12-10h11----------|12fb----------|
|--------------------------------------------12p10~~~~~|--------------|
|------------------------------------------------------|--------------|
|------------------------------------------------------|--------------|

	Additional Lyrics
2.  On a holiday, a permanent vacation.
    I'm living on a cigarrete with wine.
    I'm never alone 'cause I've got myself.
    Yes, I imitate myself all of the time.
    Livin' like this never ever tore my life apart.
    I know how to maintain 'cause it's comin' from my heart.(To Chorus)


Symbols and other stuffs.
p  - pulloff       h - hammeron    A.H. - artificial harmonics
fb - full bend    hb - half bend     qb - quarter bend
s  - slide         ~ - vibrato        r - release bend

I wrote slash in a long drawn out form to separate lines that might be pushed
together if you print directly from the page.  Also check out my copy of
November Rain.  I got this directly from the GN'R Lies book so don't complain 
to me saying it's wrong. Have a nice day. Any questions?




Quer fazer uma correção nesta cifra?







    Comentários (0) Postar um Comentário

    Nenhum comentário encontrado. Seja o primeiro!