Cifra da música: Paradise City - Guns N' Roses

Esse cifra de Guns N' Roses já foi acessado por 1211 pessoas.

Comente

A música Paradise City fez muito sucesso quando foi gravada por Guns N' Roses. Quer conhecer a letra dela? Veja a letra de Paradise City e cante.

Veja também o vídeo da música tocada.


Key:

h = hammer
BF = bend full
BFR = bend full and release
BH = bend half
P.M. = palm mute
/// = vibrato
% = repeat previous




Rhy. Fig. 1

 
  Faça 4 vezes esse dedilhado . 
  Na 2 vez do dedilhado entra a bateria .
  Na 3 vez do dedilhado entra o axl cantando (Take me down to ..........)



  G                   C                    F      C         G

|-3-3-----3-----3-----3-3-----3-----3------1-1-----0-0-----3------|
|-3---3-----3----3--3-1---1-----1-----1--1-1--1--1-1--1--1-3------|
|-0-----0-----0---0---0-----0-----0----0---2---2---0---0---0------|
|-0-------------------2--------------------3-------2-------0------|
|-2-------------------3--------------------3-------3-------3------|
|-3-------------------0--------------------1-------0-------2------|


Rhy. Fig. 2

 *
                   P.M.--|                     P.M.---|
|-------------------------|----------------------------|
|-------------------------|----------------------------|
|---------------------5-5-|--------5-------------------|
|5--------------------5-5-|-3------5---5---------------|
|5--------------------3-3-|-3------3---5---------------|
|3------------------------|-1----------3---------------|
              

Riff B

|--------------------------------------------|---------------------|
|----------------------15--------------------|---------------------|
|-------12-12--------------14~~-14~~--12-----|-----------%---------|
|-12h14---------14-12---------------------14-|---------------------|
|--------------------------------------------|---------------------|
|--------------------------------------------|---------------------|

 Riff B-1
                                                 /////////
 |-----------------------------------------------------------------|
 |-13BF-----13BF-----11~-----------------11~~----------------------|
 |------------------------14---12----------------------------------|
 |----------------------------------14-----------------------------|
 |-----------------------------------------------------------------|
 |-----------------------------------------------------------------|

Riff B-2
                   
             
                                     
 |------------------------------------------------------------------|
 |-13~~-----13~~----11~~-----------------11~~-----------------------|
 |-----------------------14---12---------------12-------------------|
 |--------------------------------14--------------------------------|
 |------------------------------------------------------------------|
 |--------------------------------------------|---------------------|

Riff C

P.M.-----------------------------------|
  //        //       
|--------------------------------------------|
|--------------------------------------------|
|---------------------------------------3----|
|------------------------------------5--3----|
|-5---3---4--5---3---4--5---3--5--3--5--1----|
|-3---1---2--3---1---2--3---1--3--1--3-------|

  P.M.-----------------------------------|
    ///     ///
  |--------------------------------------------|
  |--------------------------------------------|
  |------------------------------------5--3----|
  |------------------------------------3--3----|
  |-5---3---4--5---3---4--5---3--5--3--3--1----|
  |-3---1---2--3---1---2--3---1--3--1----------|


    P.M.-----------------------------------|
      //        //    
    |--------------------------------------------|
    |--------------------------------------------|
    |---------------------------------------3----|
    |------------------------------------5--3----|
    |-5---3---4--5---3---4--5---3--5--3--5--1----|
    |-3---1---2--3---1---2--3---1--3--1--3-------|


      P.M.----------------------------------|
        //       /
      |--------------------------------------------|
      |--------------------------------------------|
      |-----------------------------------5---3----|
      |--------------------------5---3----3---3----|
      |-5---3---4--5----3---4----5---3----3---1----|
      |-3---1---2--3----1---2----3---1-------------|

Rhy. Fig. 3 (w/ partial 1st verse for timing)

      P.M.---------------------------------------|
  //
|-----------------------------------------------------|
|--------------------------------------------------3--|
|--------------------------------------------------3--|
|--------------------------------------------------3--|
|--------------------------------------------------1--|
|-3----1---2---3---3---1---2---3---1---3---1---3------|

 1.  Just...                                     I'm...


        P.M.-----------------------------|
    //
  |---------------------------------------------------|
  |----------------------------------------5----3-----|
  |----------------------------------------5----3-----|
  |----------------------------------------5----3-----|
  |----------------------------------------3----1-----|
  |-3----1---2--3--3--1--2--3--1--3---1---------------|

     hard...                               I'm  your...  

         P.M.----------------------------------------|
      //
    |-----------------------------------------------------|
    |--------------------------------------------------3--|
    |--------------------------------------------------3--|
    |--------------------------------------------------3--|
    |--------------------------------------------------1--|
    |-3----1---2---3---3---1---2---3---1---3---1---3------|

   charity...                                 eat.  

                P.M.-----|
         ////
       |------------------------------------|--------------|
       |--------------------------3---------|--------5-----|
       |--------------------------3---------|--------5-----|
       |--------------------------3---------|--------5-----|
       |--------------------------1---------|--------3-----|
       |-3---------1---2---3----------------|--------------|
     pay   you....          another...             time.

          |-----------------------------------------------------|
          |-----------------------------------------------------|
          |--------------------------------------------/-------|
          |-------------------------------------------/--------|
          |--3BH--------1---3---1--------------------/----------|
          |-------------------------1---3----------(3)----------|
          Take...       the...       line.             (slide)



-------------------------------------------------------------------->|

O.K. 
So the song goes like this:

(Rhy. Fig. 1) x 2

(Chorus w/Rhy. Fig. 1) x 2
Take me down to the paradise city, 
where the grass is green and the girls are pretty.
Oh won't you please take me home.

(Rhy. Fig. 2) x 2

[(Riff B then Riff B-1) w/Rhy. Fig. 2]
[(Riff B then Riff B-2) w/Rhy. Fig. 2]

(Riff C)

(Verse 1 w/Rhy. Fig. 3)
Just an urchin livin' under the street.
I'm a ... hard case that's tough to beat.
I'm your charity case, so buy me something to eat.
I'll pay you at another time.

(Riff C)

(Verse 2 w/Rhy. Fig. 3)

(Chorus w/Rhy. Fig. 1) x 2


(Solo) not included

Fassa essa sequencia 4 vezes e rapido

     |------------10---------------10-----------8-----------8-|
     |--------------------------------------------------------|
     |10-11-10-11------10-11-10-11------8-9-8-9-----8-9-8-9---|
     |--------------------------------------------------------|
     |--------------------------------------------------------|
     |--------------------------------------------------------|


       So...  far..................     away................

Then comes this....


After which slide each note on the G string (3rd from the bottom)
down two frets (i.e.  10--8h9----8h9) for a while and then move it
back up two frets and so on.


________________________________________________________________






Quer fazer uma correção nesta cifra?







    Comentários (0) Postar um Comentário

    Nenhum comentário encontrado. Seja o primeiro!