Cifra da música: Madagascar - Guns N' Roses

Esse cifra de Guns N' Roses já foi acessado por 718 pessoas.

Comente

A música Madagascar fez muito sucesso quando foi gravada por Guns N' Roses. Quer conhecer a letra dela? Veja a letra de Madagascar e cante.

Veja também o vídeo da música tocada.


Versão 1
-======-

Int.: (Am  C/G  FM7) - bis 3x - G4  G  FM7(b11)  FM7

Am      C/G    FM7
I won't be told anymore
    Am      C/G              FM7
That I've been brought down in this storm
    Am      C/G        FM7
And left so far out from the shore
       G4        G
That I can't find my way back,
FM7(b11)   FM7
my way anymore
   Am
No, I..
   Am  Em  Am  C/G  FM7  G4  G  FM7(b11)  FM7  (Am)
No, I...

   Am         C/G          FM7
Forgive that they teared down my soul
      Am          C/G      FM7
Bless them that they might grow old
   Am         C/G      FM7
A dream that's forgotten may know
       G4  G  FM7(b11) FM7
That it's ne...ver  too      late

(Am)
So many times that
I've seen life before me
I searched and found the way
              Em   Am
to choose to the endI found a way,to know, why it had to be
        G4 G   FM7(b11)  FM7
Mired in denial and saw all the rain
Am              C/G
If we ever find it true
        FM7
Love will have its way to choose
            G4   G
Three more to tame
          FM7(b11) FM7
We can be e................ver


 - Refrão -










Versão 2
-======-

Introdução:
Teclado (Adaptado para guitarra)
Esta parte se repete em várias partes da música.

Base: Am G F Am G F Am G F G F

|---------------------------------------------------------|
|---------------------------------------------------------|
|----------7-9-9----------------------7-9-9-12------------|
|-10-10-10-------10-10-9p10--10-10-10----------10-12p9----|
|---------------------------------------------------------|
|---------------------------------------------------------|
                                                                              

|---------------------------------------------------------|
|---------------------------------------------------------|
|----------7-9-9------------------------------------------|
|-10-10-10-------10-10-9p10--10-9-9-7p5-7/9-7-7--9p10-7---|
|---------------------------------------------------------|
|---------------------------------------------------------|
       
A música toda é tocada nessa sequência: Am G F Am G F Am G F G F
                                         
I won't be told anymore
That I've been brought down in this storm
And left so far out from the shore

That I can't find my way back, my way anymore
No I won't be told anymore
That I've been brought back in this storm

And left so far out from the shore
That I can't find my way back, my way anymore

No, I..
No, I... 

Forgive that they teared down my soul
Bless them that they might grow old
A dream that's forgotten may know
That it's never too late

So many times that I've seen life before me
I searched and found the way to choose to the end
I found a way, to know, why it had to be
Mired in denial and saw all the rain

If we ever find it true
Love will have its way to choose
Three more to tame
We can be ever

I won't be told anymore
That I've been brought down in this storm
And left so far out from the shore
And I can't find my way back, my way anymore

No I won't be told anymore
That I've been brought back in this storm
And left so far out from the shore
That I can't find my way back, my way anymore

SOLO:
Afinação  Baixa 1/2 step 
With wah-wah 
/ slide 
^: bend string up + release bend
b: bend string up
r: release bend 
h: hammer ofn
p: pull off

Solo quando AXL grita: Aaaaaaaaaaaaaaaaaaaaaaaaaaaaaaaaaaaaaaah!
Robin Finch:

E-------------9^--7-------------9^--7-------------9^--5-------------9^--7----------------------------------------------
B------------------------------------------------------------------------------------------------------------------------------ 
G------------------------------------------------------------------------------------------------------------------------------ 
D------------------------------------------------------------------------------------------------------------------------------ 
A------------------------------------------------------------------------------------------------------------------------------ 
E------------------------------------------------------------------------------------------------------------------------------ 
 
[Solor  (BucketHead + Finck)]:

BucketHead:

E------------------------------------------------------------------------------------------------------------------------------ 
B------------------------------------------------------------------------------------------------------------------------------ 
G------------------------------------------------------------------------------------------------------------------------------ 
D------------------------------------------------------------------------------------------------------------------------------ 
A---5^^^^^^^---------------------------------7^^^^^^^---------------------------------3^^^^^^------------
E------------------------------------------------------------------------------------------------------------------------------ 

E------------------------------------------------------------------------------------------------------------------------------
B------------------------------------------------------------------------------------------------------------------------------ 
G------------------------------------------------------------------------------------------------------------------------------ 
D------------------------------------------------------------------------------------------------------------------------------ 
A---5^^^^^^^--------------------------10 / 7^^^^^^^---------------------------------7 / 5 / 7^^^^^^------
E------------------------------------------------------------------------------------------------------------------------------ 

E------------------------------------------------------------------------------------------------------------------------------ 
B------------------------------------------------------------------------------------------------------------------------------ 
G-----------------------9--------9b(9) p7/6/7-------7/6/7----------------------------------------------------------------- 
D----7b---7---------------------------------------------------7--------------5---7---------5---------5/-------------------- 
A------------------------------------------------------------------------------------------------------------------------------
E------------------------------------------------------------------------------------------------------------------------------ 


E---------------------------------------------------------------------------------------------------------------------------------------- 
B-----------------------------------------------------------------------------------------------------------------------------10-12---- 
G-----------------14-------14/12-----------------------------------------------10-12------------------------------10-12------------- 
D-----14---17------------------------14---12-----10-12------------10-12-------------10-12------------10-12----------------------- 
A-------------------------------------------------------------10-12---------------------------------10-12----------------------------- 
E---------------------------------------------------------------------------------------------------------------------------------------- 


E------------12b--12b----12b----12^---10/9----10---------------------------------------------------------------------------------------------------------------------------------
B-----10-----------------------------------------------10----11^h10p11--10------------------------------------------------------------------10--12------------10--12/17--------
G----------------------------------------------------------------------------------12-10-----------------------------10-12----------10--12------------10--12---------------------
D-----------------------------------------------------------------------------------------12--10------------10--12---------10--12--------------------------------------------------
A---------------------------------------------------------------------------------------------------10--12---------------------------------------------------------------------------
E-------------------------------------------------------------------------------------------------------------------------------------------------------------------------------------- 


E-----10----12/13/12----10---12------12^---10/9/10--10-----------------------------------------------------------------------------13--15-----13--12--10----------------- 
B------------------------------------------------------------10----------------------------------------------------------------13--15------------------------------------------- 
G-------------------------------------------------------------------12--10----12--14------12--14--------12--14---13--15---------------------------------------------------- 
D---------------------------------------------------------------------------------------15-----------15-------------------------------------------------------------------------- 
A---------------------------------------------------------------------------------------------------------------------------------------------------------------------------------
E---------------------------------------------------------------------------------------------------------------------------------------------------------------------------------

Robin Finck Solo:

E-------------18-------18-------18-------18-------18-------18-------18-------------------------------------------------- 
B----------------18--------19-------18-------19--------18-------19-------18--16--14--11------------------------------- 
G---------------------------------------------------------------------------------------------------------------------------
D--------------------------------------------------------------------------------------------------------------------------- 
A--------------------------------------------------------------------------------------------------------------------------- 
E--------------------------------------------------------------------------------------------------------------------------- 

Essa é a minha terceira cifra feita especialmente para o Cifra Club
------------------------------------------------------------------------------
Andrews Ferreira Guedis



Quer fazer uma correção nesta cifra?







    Comentários (0) Postar um Comentário

    Nenhum comentário encontrado. Seja o primeiro!