Cifra da música: Don't Cry (Alternate Lyrics) - Guns N' Roses

Esse cifra de Guns N' Roses já foi acessado por 1245 pessoas.

Comente

A música Don't Cry (Alternate Lyrics) fez muito sucesso quando foi gravada por Guns N' Roses. Quer conhecer as demais músicas? Conheça as letras das músicas gravadas por Guns N' Roses e aproveite.

Veja também o vídeo da música tocada.


OBS: Quando aparecer a sequência C Em C Em Am ela tem que ser executada 
rapidamente e a guitarra solo faz:


  C      Em      C Em Am
G|---0------0-----------|
D|-----0------0---------|
A|-3------2-------3-2-0-|
E|----------------------|



Intro: 
         Am            Dm            G
|-----|--------0-------------1---------------3-----------------------|
|-----|----------1---------3---3---------------3---------------------|
|-----|------2-----2-----2-------2---------0-----0-------0-----0-----|
|-----|----2---------0-0-----------------0-------------0-----0-------|
|-----|--0-------------------------0---2-----------0-3-----2-----3-2-|
|--3--|------------------------------3-------------------------------|
   Am            Dm            G
|-------0-------------1--------------------------|
|---------1---------3---3------------------------|
|-----2-----2-----2-------2---------0------------|
|---2---------0-0-----------------0-----------2--|
|-0-------------------------0---2-------------0--|
|-----------------------------3---------2-3-4----|

Am		     Dm
If we could see tomorrow
G		  C Em C Em Am
What of your plans
Am		     Dm
No one can live in sorrow
G		    C Em C Em Am
Ask all your friends
Am		     Dm
Times that you took in stride
G		     C Em C Em Am
They're back in demand
Am		     Dm
I was the one who's washing
G		    G/B
Blood off your hands


F         G         Am
Don't you cry tonight

I still love you baby
F          G         Am
Don't you cry tonight
F           G         Am
Don't you cry tonight
          G/B      Am      G
There's a heaven above you baby
F            G           Am
And don't you cry tonight

Am		     Dm
I know the things you wanted
G		        C Em C Em Am
They're not what you have
Am		     Dm     G		      C Em C Em Am 
With all the people talkin' it's drivin' you mad
Am		     Dm     G		   C Em C Em Am 
If I was standin' by you how would you feel 
Am		     Dm
Knowing your love's decided
 G		  G/B 
And all love is real


F         G         Am
An don't you cry tonight
F           G       Am
Don't you cry tonight
F         G         Am
Don't you cry tonight
          G/B      Am      G
There's a heaven above you baby
F            G         Am
And don't you cry tonight

SOLO:
Base: Am Dm F G Am G F G Am F G  
                E F G Am

Solo: 
E|---------------------------------------------------------------------| 
B|---------------------------------------8~~-----------8-8-------------| 
G|------------7^rp5--7-(7)~~~--r7p5--7^-------r7p5--7^-----r7----5^/-| 
D|-7~~~~~~~~~----------------------------------------------------------| 
A|---------------------------------------------------------------------| 
E|---------------------------------------------------------------------| 

E|---------------------------------------------------------------------| 
B|-----------------------------------------13^(2 steps)--13^(1/4 step)-| 
G|-7/9-9/10--------------------------12h14-----------------------------| 
D|----------------------10h12-12/14------------------------------------| 
A|-5/7--7/8--8h10-10/12------------------------------------------------| 
E|---------------------------------------------------------------------| 

E|-------------------------------------------------------------------| 
B|-------------------------------------------------------------------| 
G|-14~~~--12---------------------------------------------------------| 
D|-----------14-13h14p13p12-13p12-10-12p10---------10^---------------| 
A|------------------------------------------12p10------12p10-12-(12)-| 
E|-------------------------------------------------------------------| 

E|-----15-15-15-------------15-15------------------------------------------| 
B|-15^----------r15p13--15^-------r15--13-12---------12/15-13-12-13--------| 
G|------------------------------------------------13-----------------14----| 
D|---------------------------------------------14-----------------------15-| 
A|-------------------------------------------------------------------------| 
E|-------------------------------------------------------------------------| 

E|-13-----------------------------5----------------------------------------------| 
B|----13--15^--15~~~--r15p13--8^-----8-5--------x-x--8---------------5^r^(5)r--5-| 
G|----------------------------------------r7p5--x-x--7^--(7)-----r7--------------| 
D|-------------------------------------------------------------------------------| 
A|-------------------------------------------------------------------------------| 
E|-------------------------------------------------------------------------------| 


Dm				G		
I thought I could live in your world
C	 G/B	 Am
As years all went by
Dm			G	
With all the voices I've heard
C	 G/B	 Am
Something has died
Dm			   G
And when you're in need of someone
C	  G/B	    Am
My heart won't deny you
Dm			G
So many seem so lonely
C         G/B         Am     G
With no one left to cry to baby

F               G        Am
   And don't you cry tonight
  F               G        Am
   And don't you cry tonight
  F               G        Am
   And don't you cry tonight
                G/B      Am     G
   There's a heaven above you, baby
  F               G
   And don't you cry
  F                G
   Don't you ever cry 
  F           G       E
   Don't you cry tonight
          F
   Baby, maybe, someday
  F           G
   Don't you cry
  F              G
   Don't you ever cry
  F           G
   Don't you cry
          C
   Tonight.
 




Quer fazer uma correção nesta cifra?







    Comentários (0) Postar um Comentário

    Nenhum comentário encontrado. Seja o primeiro!