Cifra da música: HXS - Gorillaz

Esse cifra de Gorillaz já foi acessado por 389 pessoas.

Comente

A música HXS fez muito sucesso quando foi gravada por Gorillaz. Quer conhecer as demais músicas? Conheça as letras das músicas gravadas por Gorillaz e aproveite.


intro: acoustic (pick strummed or strummed with fingernails
      -|---------------------------------------------------|-
      -|---------------------------------------------------|-
      -|---------------------------------------------------|-
      -|--9-9-9-9--9-9--9-9-9--7-7--7-7--9-9----7-7/[8]/9--|-
      -|--9-9-9-9--9-9--9-9-9--7-7--7-7--9-9----7-7/[8]/9--|-
      -|--7-7-7-7--7-7--7-7-7--5-5--5-5--7-7----5-5/[6]/7--|-
harmonics - - - -         - -       - -

-|-------------------------------------------|-
-|-------------------------------------------|-
-|-------------------------------------------|-
-|---9-9--9-9-9--7-7--7-7--9-9----7-7/[8]/9--|-
-|---9-9--9-9-9--7-7--7-7--9-9----7-7/[8]/9--|-
-|---7-7--7-7-7--5-5--5-5--7-7----5-5/[6]/7--|-


verse: same as intro but with some variations
-|-----------------------------------------|-
-|-----------------------------------------|-
-|---------------11-11---------------------|-
-|---9-9--9-9-9--11-11---9-9----7-7/[8]/9--|-
-|---9-9--9-9-9--9---x---9-9----7-7/[8]/9--|-
-|---7-7--7-7-7------9---7-7----5-5/[6]/7--|-

chorus/interlude
-|-----------------------------|-
-|-----------------------------|-
-|--7h9p7-4-9---11---4-9--4h6--|-
-|-----------------------------|-
-|-----------------------------|-
-|-----------------------------|-
 
 
 

Quer fazer uma correção nesta cifra?







    Comentários (0) Postar um Comentário

    Nenhum comentário encontrado. Seja o primeiro!