Cifra da música: 5/4 - Gorillaz

Esse cifra de Gorillaz já foi acessado por 364 pessoas.

Comente

A música 5/4 fez muito sucesso quando foi gravada por Gorillaz. Quer conhecer a letra dela? Veja a letra de 5/4 e cante.

Veja também o vídeo da música tocada.


C - F - C - Eb - C - F - Bb - Eb

C	 F
Magic in me

C	 	Eb	C	
Magic makes no sound

F
It's good for me

Bb		 	Eb
It's good for me underground

C	 F
Magic on me

C		   Eb	  C
It's really got me down

F
Invade my city

Bb Eb
Make my heart beat no sound

C - F - C - Eb - C - F - Bb - Eb
Beat no sound
Beat no sound
Beat no sound
Beat no sound
Beat no sound
Make me tell myself - tell on

G
She turned my dad on (come on)
She turned my dad on, dad on, dad on!

Magic for me
Magic gets me through
We pledge it money
People seem to walk through you

Magic's funny
Magic gets me through
It's all good for me
People always seem to walk through you

C - F - C - Eb - C - F - Bb - Eb
Walk through you
Walk through you
Walk through you
Walk through you
Walk through you
Walk through you
Walk through you
Let me tell myself - tell on

G
She turned my dad on
She turned my dad on, dad on, dad on!

(no guitar)
She made me kill myself - come on!

Intermission - C repeated

G
She turned my dad on (come on)
She turned my dad on (come on)
She turned my dad on, dad on, dad on!

end on C

-------------------------------------------------------
Tuning: Standard (E A D G B e)

intro : acoustic, 2nd time with  distorted electric
-|------------------------|-
-|------------------------|-
-|------5-5-5-------------|-
-|--7-7-5-5-5--7-7-5-5-5--|-
-|--7-7-3-3-3--7-7-5-5-5--|-
-|--5-5--------5-5-3-3-3--|-

verse : acoustic and electric
-|------------------------|-
-|------------------------|-
-|------5-5-5-------------|-
-|--7-7-5-5-5--7-7-5-5-5--|-
-|--7-7-3-3-3--7-7-5-5-5--|-
-|--5-5--------5-5-3-3-3--|-

chorus : distorted electric (guitar 1)
-|--------------------------------------------------------------------------|-
-|--------------------------------------------------------------------------|-
-|-7--------------------------7---------------------------7-7-7-7-7-7-7-7-7-|-
-|-7--------------------------7---------------------------7-7-7-7-7-7-7-7-7-|-
-|-5--------------------------5---------------------------5-5-5-5-5-5-5-5-5-|-
-|--------------------------------------------------------------------------|-

chorus : distorted electric (guitar 1)
-|--------------------------------------------------------------------------|-
-|--------------------------------------------------------------------------|-
-|-------------------9-9-9-9-9-----------------7-7-7-7-7-7-7-7-7-7-7-7-7-7--|-
-|--7-7-7-7-7-7-7-7--9-9-9-9-9-7-7-7-7-7-7-7-7-7-7-7-7-7-7-7-7-7-7-7-7-7-7--|-
-|--7-7-7-7-7-7-7-7--7-7-7-7-7-7-7-7-7-7-7-7-7-5-5-5-5-5-5-5-5-5-5-5-5-5-5--|-
-|--5-5-5-5-5-5-5-5------------5-5-5-5-5-5-5-5------------------------------|-


Quer fazer uma correção nesta cifra?







    Comentários (0) Postar um Comentário

    Nenhum comentário encontrado. Seja o primeiro!