Cifra da música: 19-2000 - Gorillaz

Esse cifra de Gorillaz já foi acessado por 788 pessoas.

Comente

A música 19-2000 fez muito sucesso quando foi gravada por Gorillaz. Quer conhecer a letra dela? Veja a letra de 19-2000 e cante.

Veja também o vídeo da música tocada.


Tuning: Standard (E A D G B e)

main riff
-|-----------------------------------------|-
-|-----------------------------------------|-
-|-----------------------------------------|-
-|---------------------4-------------------|-
-|----------4-------------4--------4-------|-
-|--2--2---------6-------------2------1-2--|-

main riff (cont')
-|-----------------------------------------|-
-|-----------------------------------------|-
-|-----------------------------------------|-
-|---------------------4-------------------|-
-|----------4-------------4--------4-------|-
-|--2--2---------6-------------2------1-2--|-

main riff (cont')
-|-----------------------------------------|-
-|-----------------------------------------|-
-|-----------------------------------------|-
-|---------------------6-------------------|-
-|----------6-------------6--------6-------|-
-|--4--4---------8-------------4------3-4--|-

verse : main riff palm muted, maybe with some phasing or something


Quer fazer uma correção nesta cifra?







    Comentários (0) Postar um Comentário

    Nenhum comentário encontrado. Seja o primeiro!